Oops, an error
Loading. Please wait.

Gone For Good Chords

version 1
version 1

Whole song

  • This version has more specific chords throughout the song.

Interactive

195,465 views 237 this week
23 commentsread comments
1 2 3 4 5
x 119
add to favorites
×
Save as Personal and add changes to this tab that will be seen only by you. Learn more ›
×
You can save this tab as Personal to edit and correct it or add notes. All changes will be seen only by you. Learn more »
save as personal
new!
launch autoscroll
font size
0
reset
transpose
0
reset
simplify chords
display chords
guitar tuner
Autoscroll
slow
fast
+/-
esc
set tempo
stop
Author
Tuning
E A D G B E
Strumming
There is no strumming pattern for this song yet. and get +5 IQ
Band: Shins
Song: Gone for Good
Album: Chutes Too Narrow

Tabbed by: Phildopip

This is a very easy song to play. It's very similar to "New Slang" from their first
album. It's a fun little ditty. Enjoy.

(Chords)

C: X32010
C/G: 332010
F: x33211
G: 320003
Am: X02210

[Intro]

C  C/G


[Verse 1]

C    C/G    C          C/G
Untie me, I've said no vows
C    C/G       C              C/G
The train is getting way too loud
           F
I gotta leave here my girl
                  C         C/G      C      C/G
Get on with my lonely life
                 G
Just leave the ring on the rail
                    C       C/G      C      C/G
For the wheels to nullify

C C/G       C          C/G
Until this turn in my head
   C      C/G          C       C/G
I let you stay and you paid no rent
          F                        C     C/G     C    C/G
I spent twelve long months on the lam
                G              
That's enough sitting on the fence
                           C    C/G   C   C/G
For the fear of breaking dams


[Chorus]

Am        C
I find a fatal flaw
           F 
In the logic of love
              C             G
And go out of my head
Am            C
You love a sinking stone
          F
That'll never elope
        C              G
So get used to the lonesome
       C         G
Girl, you must atone some
        C           G            F
Don't leave me no phone number there


[Solo]

          C  C/G (x4) 
          F  
          C  C/G (x2) 
          G
          C  C/G (x2) 


C  C/G      C        C/G
It took me all of a year
C             C/G   C         C/G
To put the poison pill to your ear                   
            F                           C        C/G    C     C/G
But now I stand on honest ground, on honest ground
              G
You want to fight for this love
                F
But honey you cannot wrestle a dove
                C    C/G    C   C/G
So baby it's clear


[Verse 2]

(same as before) 

Am  C  F  C  G*
You want to jump and dance
But you sat on your hands
And lost your only chance

Go back to your hometown
Get your feet on the ground
And stop floating around


[Chorus]

Am        C
I find a fatal flaw
           F 
In the logic of love
              C             G
And go out of my head
Am            C
You love a sinking stone
          F
That'll never elope
        C              G
So get used to the lonesome
       C         G
Girl, you must atone some
        C           G            F
Don't leave me no phone number there

C
Suggest correction
comments
print report bad tab
23 comments total. Showing first comments.
+4 reply
Uncle_Sam 10 Sep 06, 2005 08:00 PM

no gone for good is what it was called before they put it on the cd as a call to apathy.

+2 reply
bigaleff 183 Oct 03, 2006 11:05 AM

Solo:
E|-12-------10-------8------7-8-------------------------------7-8-|
B|----13-------12------10-8-----8/10\8\6-5h6-/8-------------8-----|
G|-------12-------12------------------------------5-7/9~--(9)-----|
D|----------------------------------------------------------------|
A|----------------------------------------------------------------|
E|----------------------------------------------------------------|

E|-----8-----8-----8----------8---8----8---8----8-8-8----8-8---|
B|-6-----8-6---8-6---8-6-8/10-8---8h10-8---8h10-8-8-8h10-8-8-8-|
G|-------------------------------------------------------------|
D|-------------------------------------------------------------|
A|-------------------------------------------------------------|
E|-------------------------------------------------------------|

E|-7-----------------------------------------------------------|
B|----8--------------------------------------------------------|
G|-------7--5--4-----------------------------------5-7-5-7/9~--|
D|----------------5----------------------------5-7-------------|
A|-------------------5-----3-2-2-2h3-------5/7-----------------|
E|-------------------------------------------------------------|

Sorry there's no timing, listen, you'll get it.

+1 reply
bigaleff 183 Oct 03, 2006 11:05 AM

Solo:
E|-12-------10-------8------7-8-------------------------------7-8-|
B|----13-------12------10-8-----8/10\8\6-5h6-/8-------------8-----|
G|-------12-------12------------------------------5-7/9~--(9)-----|
D|----------------------------------------------------------------|
A|----------------------------------------------------------------|
E|----------------------------------------------------------------|

E|-----8-----8-----8----------8---8----8---8----8-8-8----8-8---|
B|-6-----8-6---8-6---8-6-8/10-8---8h10-8---8h10-8-8-8h10-8-8-8-|
G|-------------------------------------------------------------|
D|-------------------------------------------------------------|
A|-------------------------------------------------------------|
E|-------------------------------------------------------------|

E|-7-----------------------------------------------------------|
B|----8--------------------------------------------------------|
G|-------7--5--4-----------------------------------5-7-5-7/9~--|
D|----------------5----------------------------5-7-------------|
A|-------------------5-----3-2-2-2h3-------5/7-----------------|
E|-------------------------------------------------------------|

Sorry there's no timing, listen, you'll get it.

guest
You may want to rate the tab now too:
select rating
Wanna post a correction for this tab? Suggest correction