Oops, an error
Loading. Please wait.

Know Your Onion Bass Tab

1,349 views 3 this week
no commentswrite comment
1 2 3 4 5
please rate
add to favorites
launch autoscroll
font size
0
reset
guitar tuner
Tab Pro tools
  • play this tab
  • loop segment
  • change instrument
  • show fretboard
  • metronome
×
Best way to learn
"Know Your Onion"
Autoscroll
slow
fast
+/-
esc
set tempo
stop
Contributor
THE SHINS - KNOW YOUR ONION!
     (Tabbed by w7w7w7)



Intro
G|-----------------------------------------------------------------------|
D|-9---7---6---4---2-----------------------------------------------------|
A|-----------------------------------------------------------------------|
E|-----------------------------------------------------------------------|



Verse, x2
G|-----------------------------------------------------------------------|
D|----------9-----------------9----------------9-------------------------|
A|-7-7----77--9------7-7----77--9-----7-7----77--11-9-11-----4-7-----6-9-|
E|---------------7----------------7----------------------5-5-----7-7-----|



Chorus (kind of)
G|-----------------------------------------------------------------------|
D|----6--7-----------7--9--7--6-----------9--7--6----7----7--------------|
A|-4-----------7--6--------------7--------------------55-----------------|
E|----------4-----------------------7--5-------------------55555555------|



Bridge
G|-----------------|
D|-----------------|
A|-----------------|
E|-7-7-7-7-7-7-----|



Verse, x2



Bridge
G|-----------------------------------------------------------------------|
D|-----------------------------------------------------------------------|
A|-----------------------------------------------------------------------|
E|-4-4-4-4-5-5-7-7-------------------------------------------------------|

G|-11---9--8-----------------11---9--------------------------------------|
D|-----------11----------9------------11---------------------------------|
A|----------------7--11--------------------12--11--9---------------------| x2
E|-----------------------------------------------------------------------|

G|-----------------------------------------------------------------------|
D|-----------------------------------------------------------------------|
A|-----------------------------------------------------------------------|
E|-4-4-4-4-5-5-7-7-------------------------------------------------------|

G|----------12----------12----------------12----------------12-----------|
D|-10-10-10-------10-10----------9-9-9-12----------9-9-9-12--------------|
A|-----------------------------------------------------------------------| x2
E|-----------------------------------------------------------------------|

G|----------12----------12-----------------------------------------------|
D|-10-10-10-------10-10----------9-9-9-9-9-9-9-----------9------9-7-6----|
A|-------------------------------------------------10-12--------------9--|
E|-----------------------------------------------------------------------|



Verse, x2

Chorus



Bridge
G|-----------------------------------------------------------------------|
D|-----------------------------------------------------------------------|
A|-------------------------------------------------------7---------------|
E|-77777777-77777777-77777777-77777777-77777777-77777777-----------------|
comments
We did not receive enough feedback on this tab! Please rate:
print report bad tab
1 2 3 4 5
I want to post or [tab]
guest
You may want to rate the tab now too:
select rating
Please do not post tabs as comments. Select "correction" instead!