Oops, an error
Loading. Please wait.

New Slang Bass Tab

version 3
version 3

Whole song

Interactive

4,137 views 3 this week
2 commentsread comments
1 2 3 4 5
accurate
x 3
add to favorites
launch autoscroll
font size
0
reset
guitar tuner
Tab Pro tools
  • play this tab
  • loop segment
  • change instrument
  • show fretboard
  • metronome
×
Best way to learn
"New Slang"
Autoscroll
slow
fast
+/-
esc
set tempo
stop
Contributor
Tabbed By : jaronthebassist

                                New Slang                                  


                                                                  The Shins
Bass



     W                   W                   W                 
G||-------------------|-------------------|-------------------|
D||-------------------|-------------------|-------------------|
A||-------------------|-------------------|-------------------|
E||-------------------|-------------------|-------------------|


    H         H           H         H            H         H         
|----------------------|---------------------|----------------------|
|*--7--------10--------|-----------10--------|------------10--------|
|*---------------------|--8------------------|--10------------------|
|----------------------|---------------------|----------------------|


  H         Q    Q     4x  H         H            W                 
-----------------------||---------------------|--------------------|
--7-------------------*||--7------------------|--10----------------|
-----------10----7----*||-----------10--------|--------------------|
-----------------------||---------------------|--------------------|


   H         Q    Q       W                    Q.     E  H         
-----------------------|-------------------|----------------------|
--10--------10----9----|--7----------------|--10------------------|
-----------------------|-------------------|----------7--8--------|
-----------------------|-------------------|----------------------|


  H         Q.     E      W                    Q.     E  H         
----------------------|--------------------|----------------------|
-----------10---------|--------------------|--10------------------|
-------------------7--|--10----------------|----------7--8--------|
----------------------|--------------------|----------------------|


  H        H            H        H           H         Q.     E   
--------------------|---------------------|----------------------|
-----------7--------|------------7--------|-----------10---------|
--------------------|--10-----------------|-------------------7--|
--------------------|---------------------|----------------------|


  W                    Q.     E   H           H         Q.     E   
-------------------|-----------------------|----------------------|
-------------------|--10-------------------|-----------10---------|
--8----------------|----------7--10--------|-------------------7--|
-------------------|-----------------------|----------------------|


  H        H            W                   W                 
--------------------|--------------------|-------------------|
-----------7--------|--------------------|-------------------|
--8-----------------|--10----------------|-------------------|
--------------------|--------------------|-------------------|


   E   E   E   H        E      E   E   E   H        E   
---------------------------|--12-----------------------|
--12-----------------------|------14--12--10-----------|
------14--12--10-----------|---------------------------|
---------------------------|---------------------------|


   Q.     E   H            E   E   E  H        E   
--10------9------------|--12----------------------|
-------------10--------|------12--10--9-----------|
-----------------------|--------------------------|
-----------------------|--------------------------|


   E   E   E   H        E      E   E   E   H        E   
---------------------------|--12-----------------------|
--12-----------------------|------14--12--10-----------|
------14--12--10-----------|---------------------------|
---------------------------|---------------------------|


  Q.     E   H           Q.     E   H           Q.     E   Q.     E   
----------------------|----------------------|-----------------------|
------------10--------|------------10--------|------------10---------|
--8------7------------|--8------7------------|--8------7----------7--|
----------------------|----------------------|-----------------------|


   H        H           H         Q    Q       W                 
---------------------|----------------------|-------------------|
---------------------|----------------------|--7----------------|
--10-----------------|-----------10----7----|-------------------|
---------------------|----------------------|-------------------|


   Q.     E  H           H         Q.     E      W                 
----------------------|----------------------|--------------------|
--10------------------|-----------10---------|--------------------|
----------7--8--------|-------------------7--|--10----------------|
----------------------|----------------------|--------------------|


   Q.     E  H           H        H            H        H         
----------------------|--------------------|---------------------|
--10------------------|-----------7--------|------------7--------|
----------7--8--------|--------------------|--10-----------------|
----------------------|--------------------|---------------------|


  H         Q.     E     W                    Q.     E   H         
----------------------|-------------------|-----------------------|
-----------10---------|-------------------|--10-------------------|
-------------------7--|--8----------------|----------7--10--------|
----------------------|-------------------|-----------------------|


  H         Q.     E     H        H            W                 
----------------------|--------------------|--------------------|
-----------10---------|-----------7--------|--------------------|
-------------------7--|--8-----------------|--10----------------|
----------------------|--------------------|--------------------|


  W                    E   E   E   H        E   
-------------------|---------------------------|
-------------------|--12-----------------------|
-------------------|------14--12--10-----------|
-------------------|---------------------------|


   E   E   E   H        E      Q.     E   H         
--12-----------------------|--10------9------------|
------14--12--10-----------|-------------10--------|
---------------------------|-----------------------|
---------------------------|-----------------------|


   E   E   E  H        E      E   E   E   H        E   
--12----------------------|---------------------------|
------12--10--9-----------|--12-----------------------|
--------------------------|------14--12--10-----------|
--------------------------|---------------------------|


   E   E   E   H        E     Q.     E   H           Q.     E   H         
--12-----------------------|----------------------|----------------------|
------14--12--10-----------|------------10--------|------------10--------|
---------------------------|--8------7------------|--8------7------------|
---------------------------|----------------------|----------------------|


  Q.     E   Q.     E      H        H           H         Q    Q     
-----------------------|---------------------|----------------------|
------------10---------|---------------------|----------------------|
--8------7----------7--|--10-----------------|-----------10----7----|
-----------------------|---------------------|----------------------|


  H         H           Q     Q     H            H         Q     Q     
---------------------|-----------------------|------------------------|
-----------10--------|-------10--------------|--10--------------10----|
--8------------------|--8----------10--------|------------10----------|
---------------------|-----------------------|------------------------|


  W                   H         H           Q     Q     H         
-------------------|---------------------|-----------------------|
-------------------|-----------10--------|-------10--------------|
--8----------------|--8------------------|--8----------10--------|
-------------------|---------------------|-----------------------|


   H         H            Q     Q     H           H         H         
----------------------|------------------------|---------------------|
--10------------------|--------12----10--------|-----------10--------|
------------12--------|--10--------------------|---------------------|
----------------------|------------------------|---------------------|


   Q    Q    H           H         Q.     E     W                 
----------------------|----------------------|-------------------|
--10----9----7--------|-----------10---------|-------------------|
----------------------|-------------------7--|--8----------------|
----------------------|----------------------|-------------------|


   Q.     E   H           H         Q.     E     H        H         
-----------------------|----------------------|--------------------|
--10-------------------|-----------10---------|-----------7--------|
----------7--10--------|-------------------7--|--8-----------------|
-----------------------|----------------------|--------------------|


   W                   W                      E   E   E   H        E   
--------------------|-------------------||----------------------------|
--------------------|-------------------||*--12-----------------------|
--10----------------|-------------------||*------14--12--10-----------|
--------------------|-------------------||----------------------------|


   E   E   E   H        E      Q.     E   H         
--12-----------------------|--10------9------------|
------14--12--10-----------|-------------10--------|
---------------------------|-----------------------|
---------------------------|-----------------------|


   E   E   E  H        E        E   E   E   H        E   
--12-----------------------||---------------------------|
------12--10--9-----------*||--12-----------------------|
--------------------------*||------14--12--10-----------|
---------------------------||---------------------------|


   E   E   E   H        E     Q.     E   H           Q.     E   H         
--12-----------------------|----------------------|----------------------|
------14--12--10-----------|------------10--------|------------10--------|
---------------------------|--8------7------------|--8------7------------|
---------------------------|----------------------|----------------------|


  Q.     E   Q.     E      H        H           H         Q    Q     
-----------------------|---------------------|----------------------|
------------10---------|---------------------|----------------------|
--8------7----------7--|--10-----------------|-----------10----7----|
-----------------------|---------------------|----------------------|


  H         H           Q     Q     H            H         Q     Q     
---------------------|-----------------------|------------------------|
-----------10--------|-------10--------------|--10--------------10----|
--8------------------|--8----------10--------|------------10----------|
---------------------|-----------------------|------------------------|


  W                   H         H           Q     Q     H         
-------------------|---------------------|-----------------------|
-------------------|-----------10--------|-------10--------------|
--8----------------|--8------------------|--8----------10--------|
-------------------|---------------------|-----------------------|


   H         H            Q     Q     H           H         H         
----------------------|------------------------|---------------------|
--10------------------|--------12----10--------|-----------10--------|
------------12--------|--10--------------------|---------------------|
----------------------|------------------------|---------------------|


   Q    Q    H            H        H            H         H         
----------------------|---------------------|----------------------|
--10----9----7--------|--10-----------------|--10------------------|
----------------------|------------8--------|------------10--------|
----------------------|---------------------|----------------------|


   H        H            H        H            H        H         
---------------------|---------------------|---------------------|
--10--------7--------|------------7--------|--10-----------------|
---------------------|--10-----------------|------------8--------|
---------------------|---------------------|---------------------|


   H         H            H         H            Q     Q     H         
----------------------|----------------------|------------------------|
--10------------------|--10------------------|--------12----10--------|
------------10--------|------------12--------|--10--------------------|
----------------------|----------------------|------------------------|


  W                  
-------------------||
--L----------------||
-------------------||
-------------------||




Duration Legend
---------------
W - whole
H - half
Q - quarter
E - 8th
S - 16th
T - 32nd
X - 64th
. - note dotted
|-n-|  - n-tuplets


Tablature Legend
----------------
L - tied note
x - dead note
g - grace note
(n) - ghost note
> - accentuded note
NH - natural harmonic
AH - artificial harmonic
TH - tapped harmonic
SH - semi harmonic
PH - pitch harmonic
h - hammer on
p - pull off
b - bend
br - bendRelease
pb - preBend
pbr - preBendRelease
brb - bendReleaseBend
\n/ - tremolo bar dip
\n - tremolo bar dive
-/n - tremolo bar Release up
/n\ - tremolo bar inverted dip
/n - tremolo bar return
-\n - tremolo bar Release down
S - shift slide
s - legato slide
/ -  slide into from below or out of upwards
\ -  slide into from above or out of downwards
~ - vibrato
W - wide vibrato
tr - trill
TP - tremolo picking
T - tapping
S - slap
P - pop
< - fade in
^ - brush up
v - brush down
comments
We did not receive enough feedback on this tab! Please rate:
print report bad tab
1 2 3 4 5
2 comments total.
0 reply
Muse-ician wrote on May 14 2013, 08:40 pm

Nice tab, its a little hard to read, you should mark chorus and verse and such

0 reply
Muse-ician wrote on May 14 2013, 08:57 pm

I think the ending is the same as the intro

I want to post or [tab]
guest
You may want to rate the tab now too:
select rating
Please do not post tabs as comments. Select "correction" instead!