Oops, an error
Loading. Please wait.

New Slang Tab

version 3
version 3

Whole song

Interactive

409,389 views 933 this week
22 commentsread comments
1 2 3 4 5
excellent!
x 96
add to favorites
launch autoscroll
font size
0
reset
how to read this tab
guitar tuner
Tab Pro tools
  • play this tab
  • loop segment
  • change instrument
  • show fretboard
  • metronome
×
Best way to learn
"New Slang"
Autoscroll
slow
fast
+/-
esc
set tempo
stop
Contributor
Difficulty
intermediate
Intro:
3x Am C F C G C Am G
Am C F C G C Am G C
A|--3-2-

Verse 1:
Am x2            C              F x2
Gold teeth and a curse for this town
C              G x2
Were all in my mouth
     C            F x2         Am   G
Only I don't know how they got out, dear
Am x2          C      F x2
Turn me back into the pet
C             G x2
I was when we met
C             F x2         Am   G
I was happier then with no mind set

Chorus:
G x2                   C x2
And if you'd a took to me like
  F    C            G x2
A gull takes to the wind
            G x2        C
Well, I'd a jumped from my tree
    F     C               F           C
And I'd a danced like the king of the eyesores
F                   C             G x4
And the rest of our lives would'a fared well

Verse 2:
Am x2              C          F x2
New slang when you notice the stripes
C                G x2
The dirt in your fries
     C                   F x2
Hope it's right when you die
        Am  G
Old and booony
Am x2              C                F x2
Dawn breaks like a bull through the hall
C              G x2
Never should'a called
    C               F x2
But my heads to the wall
        Am  G
And I'm lonely

Chorus:
G x2                   C x2
And if you'd a took to me like
  F    C            G x2
A gull takes to the wind
            G x2        C
Well, I'd a jumped from my tree
    F     C               F           C
And I'd a danced like the king of the eyesores
F                   C             G x4
And the rest of our lives would'a fared well


Solo 1:
E|------3-0---------s-----------------------s--------s----------------------|
B|--1h3-----3-1-0-1-/-6-5-5----6-/-10--8--5-\-3--1-3-/-5--------------------|
G|--------------------------------------------------------------------------|
D|--------------------------------------------------------------------------|
A|--------------------------------------------------------------------------|
E|--------------------------------------------------------------------------|

E|----0-3-3/5--5-5--555-3-3--555-3------------------------------------------|
B|--1------s-----------------------5-3\1-3--3/5-----------------------------|
G|------------------------------------s-------------------------------------|
D|--------------------------------------------------------------------------|
A|--------------------------------------------------------------------------|
E|--------------------------------------------------------------------------|

    let ring...................
E|--------------------------------------------------------------------------|
B|----0-1-----0-3--1--------------------------------------------------------|
G|--2-------0---------------------------------------------------------------|
D|-----------------------2p0------------------------------------------------|
A|----------------------------3---------------------------------------------|
E|--------------------------------------------------------------------------|

A|--3-2-


Verse 3:
Am x2             C          F x2
God speed all the baker's at dawn
             C         G x2
May they all cut their thumbs
    C                F
And bleed into their buns
           Am   G x3
'Till they melt away

Chorus 2:
G x2                  C x2
I'm looking in on the good life
           F               G
I might be doomed never to find
                           C
Without a trust or flaming fields
    F    C       G x2
Am I too dumb to refine?
                       C
And if you'd a took to me like
     F     C               F            C
Well I'd a danced like the queen of the eyesores
F                   C             G x4
And the rest of our lives would'a fared well




Solo 2:
E|------0-------------------------------------------------------------------|
B|--0h1----1/3-3/5---6-5-5---66/8--8/10--8----------------------------------|
G|--------------------------------------------------------------------------|
D|--------------------------------------------------------------------------|
A|--------------------------------------------------------------------------|
E|--------------------------------------------------------------------------|

E|--------------------------------------------------------------------------|
B|--5-3--1-3-/-5--3-5-/6-6---666-55--66/8--8/10--8--------------------------|
G|--------------------------------------------------------------------------|
D|--------------------------------------------------------------------------|
A|--------------------------------------------------------------------------|
E|--------------------------------------------------------------------------|

E|--------------------------------------------------------------------------|
B|--1-3-/5-3-1-0---0-1------------------------------------------------------|
G|---------------2----------------------------------------------------------|
D|-----------------------2p0------------------------------------------------|
A|----------------------------3---------------------------------------------|
E|--------------------------------------------------------------------------|

A|--3-2-

Outro:
2x Am C F C G C Am G

Am

e ---|---|---|---|---|
B -x-|---|---|---|---|
G ---|-x-|---|---|---|
D ---|-x-|---|---|---|
A ---|---|---|---|---|
E ---|---|---|---|---|

C
e ---|---|---|---|---|
B -x-|---|---|---|---|
G ---|---|---|---|---|
D ---|-x-|---|---|---|
A ---|---|-x-|---|---|
E ---|---|-o-|---|---|

F
e -x-|---|---|---|---|
B -x-|---|---|---|---|
G ---|-x-|---|---|---|
D ---|---|-x-|---|---|
A ---|---|-x-|---|---|
E ---|---|---|---|---|

G
e ---|---|-x-|---|---|
B ---|---|---|---|---|
G ---|---|---|---|---|
D ---|---|---|---|---|
A ---|-x-|---|---|---|
E ---|---|-x-|---|---|
comments
print report bad tab
22 comments total. Showing first comments.
0 reply
onlymodestmouse wrote on June 6 2007, 09:43 pm

thats nice, you got it exactly how i played it !

0 reply
jbhitter24 wrote on June 6 2007, 09:55 pm

thanks man. i think i might've put in an extra G somewhere. my first tab though, i just need to figure out how to edit it.

0 reply
LtlSpanishFlea wrote on June 7 2007, 02:37 pm

Nah man, you're pretty spot on. I dont think there's anything wrong with it, and Ive been looking for this song with the correct solo forever. Great job

I want to post or [tab]
guest
You may want to rate the tab now too:
select rating
Please do not post tabs as comments. Select "correction" instead!