Oops, an error
Loading. Please wait.

Pink Bullets Tab

version 1
version 1

Intro

Whole song

23,092 views 30 this week
2 commentsread comments
1 2 3 4 5
accurate
x 6
add to favorites
launch autoscroll
font size
0
reset
how to read this tab
guitar tuner
Tab Pro tools
  • play this tab
  • loop segment
  • change instrument
  • show fretboard
  • metronome
Autoscroll
slow
fast
+/-
esc
set tempo
stop
Contributor
-------------------------------------------------------------------------------
                             PINK BULLETS - The Shins
-------------------------------------------------------------------------------
Tabbed by: Jeff Krivo   
Email:krivo@rice.edu    

Tuning: eBGDAE
CAPO III
Here are the chords for this song (relative to capo)

Intro/Verse/solo:
Em - D - A (many times)

Chorus:
G - D - G - D - G - D - F - C - D

Bridge
C - D - F - G - C - D - F - G - C - D - G - C - C - D


Intro/Verse riff "capo zero":
e|------10--------8-------5-----5-5------------------------------------------|
B|---------8--------6---------3------6/8-------------------------------------|
G|----7------7/-------5/----2------------------------------------------------|
D|---------------------------------------------------------------------------|
A|---------------------------------------------------------------------------|
E|---------------------------------------------------------------------------|

Harmonica? solo (NOT relative to capo): 
e|----15~~~~~~~-13-----------------22-17-18-15-----15\13---------------13----|
B|-----------------15-11h13-13-15------------------------15---15h13-11-------|
G|---------------------------------------------------------------------------|
D|---------------------------------------------------------------------------|
A|---------------------------------------------------------------------------|
E|---------------------------------------------------------------------------|



| /  slide up
| \  slide down
| h  hammer-on
| p  pull-off
| ~  vibrato
| +  harmonic
| x  Mute note
===============================================================================
comments
print report bad tab
2 comments total.
+1 reply
awesomeperson1 wrote on April 22 2010, 05:39 pm

well i couldn't find any good tabs for the intro to this song on this site or mx tabs.com but i think ur intro is very close, if not perfect. thanx.

0 reply
cklug wrote on August 23 2014, 11:40 am

Hey, not really a correction but heres another way to play the intro
personally i find it easier but yours sounds good. thought I'd just put it out there for anyone..

e----------------------------------------------------------------------
B----15------------13--------------10---------6/8----------------------
G--------12---10--------10----7----------------------------------------
D----------------------------------------------------------------------
A----------------------------------------------------------------------
E----------------------------------------------------------------------

I want to post or [tab]
guest
You may want to rate the tab now too:
select rating
Please do not post tabs as comments. Select "correction" instead!