Oops, an error
Loading. Please wait.

Pink Bullets Tab

version 3
version 3

Intro

Whole song

8,528 views 18 this week
no commentswrite comment
1 2 3 4 5
poor
x 1
add to favorites
launch autoscroll
font size
0
reset
how to read this tab
guitar tuner
Tab Pro tools
  • play this tab
  • loop segment
  • change instrument
  • show fretboard
  • metronome
Autoscroll
slow
fast
+/-
esc
set tempo
stop
Contributor
-------------------------------------------------------------------------------
                             Pink Bullets - The Shinns
-------------------------------------------------------------------------------
Tabbed by: Biscuit.
Email: -

This is repeated throughout most of the song. I don't know how the chords go though :/


[I'm just over my first week of guitar and its pretty awesome!

 I've tried looking for a correct tab for this song but I couldn't find
 it anywhere, so here's how I figured it to be. :)  ]


Tuning: Standard

e|--------10--------8--------------------------------------------------------|
B|----8------8---------------10-------10---------6/8-------------------------|
G|-------------10-----10--7--------7------7----------------------------------|
D|-------------------------------------------10------------------------------|
A|---------------------------------------------------------------------------|
E|---------------------------------------------------------------------------|

| /  slide up
| \  slide down
| h  hammer-on
| p  pull-off
| ~  vibrato
| +  harmonic
| x  Mute note
===============================================================================
comments
We did not receive enough feedback on this tab! Please rate:
print report bad tab
1 2 3 4 5
I want to post or [tab]
guest
You may want to rate the tab now too:
select rating
Please do not post tabs as comments. Select "correction" instead!