Oops, an error
Loading. Please wait.

Sea Legs Bass Tab

version 1
version 1

Whole song

8,656 views 6 this week
4 commentsread comments
1 2 3 4 5
excellent!
x 10
add to favorites
launch autoscroll
font size
0
reset
guitar tuner
Tab Pro tools
  • play this tab
  • loop segment
  • change instrument
  • show fretboard
  • metronome
×
Best way to learn
"Sea Legs"
Autoscroll
slow
fast
+/-
esc
set tempo
stop
Contributor
Difficulty
intermediate
################################################################################
                          SONG:           SEA LEGS
                          ARTIST:         THE SHINS
                          ALBUM:          WINCING THE NIGHT AWAY
                          TABBED BY:      DONAL (PHRIDGE :)
################################################################################
This is song has the cooooolest bassline ever! And here it is :)

INTRO

G|----------------------|----------------------|
D|----------------------|----------------------|
A|----------5-----------|----------2-----------|
E|---3--3------3--------|---3--3------3--------|




VERSE
      Played a few times:                                                                        
G|------------------------------------------------------------------------------|  
D|-------------------------------------------0--1--3-------3/5---3--------------|   
A|----------5----------5----6--5--3--5----1--------------------------5--3---1---|   
E|---3--3------3----------------------------------------------------------------|   
                                                                                +
G|-----------------------------------------------------------------------3h5p3--|  
D|---------------------4---------------------0--1--3-------3/5---3----3---------|  
A|----------5-------------5--3--5---------1------------------------5------------|  
E|---3--3------3----------------------------------------------------------------|   

      Played last time only:
G|-------------------------------------------------------------5--3-------------|    
D|---------------------5--4------------------0--1--2--3--5--3-------------------| 
A|----------5----------------3--5---------1-------------------------------------|          
E|---3--3------3----------------------------------------------------------------|




CHORUS
      
G|-------------------------------------------------------|
D|---------------------------5-------7--5--3-------5p3---|
A|---1-----1h3--5-------3h5------------------------------|
E|-------------------------------------------------------| X2

G|---5---3--------5------3h5------5-----5---3------------|
D|-----------3--3-----3h5----3--3---------------5--------|
A|-------------------------------------------------------|
E|-------------------------------------------------------| X1




BASS CUTS OUT FOR GUITAR SOLO BIT



ENDING - Theres a load of different variations. Ive tabbed out just a few.

G|----------------------------------------|G|---------------------------------3--5---| 
D|--------------------/5---3--------5/----|D|---------------------/5---3---3---------|
A|----------5----------------5--p3--------|A|----------5-----------------5-----------|
E|---3--3------3--------------------------|E|---3--3------3--------------------------|

G|----------------------------------------|G|----------------------------------------| 
D|----------------------------------------|D|----------------------3--5--3-----------|
A|----------5---------/5--3--5--3--5------|A|----------5--------------------5--3--1--|
E|---3--3------3--------------------------|E|---3--3------3--------------------------|


Faddddeeee oooooooout........
comments
print report bad tab
4 comments total. Showing first comments.
0 reply
Phridge wrote on December 6 2006, 02:56 pm

Second part of Chorus was meant to be:

G|---5---3--------5------3h5------5-----5---3------------|
D|--------------------3h5-----------------------5--------|
A|-----------3--3------------3--3------------------------|
E|-------------------------------------------------------| X1

aiiight! Its my first tab so...Be as blunt as you can?

0 reply
onlymodestmouse wrote on December 6 2006, 06:50 pm

ey where'd u get this song? their new cd isn't out yet, is it!

0 reply
ChapelHeel66 wrote on July 15 2012, 10:08 am

Great job, especially if it is your first.

I want to post or [tab]
guest
You may want to rate the tab now too:
select rating
Please do not post tabs as comments. Select "correction" instead!