Oops, an error
Loading. Please wait.

Sea Legs bass

version 2
version 2

Whole song

142 views 1 this week
no commentswrite comment
1 2 3 4 5
3 more votes to show rating
add to favorites
×
Save as Personal and add changes to this tab that will be seen only by you. Learn more ›
×
You can save this tab as Personal to edit and correct it or add notes. All changes will be seen only by you. Learn more »
launch autoscroll
font size
0
reset
guitar tuner
edit
Autoscroll
slow
fast
+/-
esc
set tempo
stop
Author
Difficulty
THE SHINS | WINCING THE NIGHT AWAY
Sea Legs - Bass Tab
E Standard


G|------REST------|------REST------|-----REST------|------REST------|
D|----------------|----------------|---------------|----------------|
A|----------------|----------------|---------------|----------------|
E|------REST------|------REST------|-----REST------|------REST------|

 | INTRO - 0:10
G|----------------|----------------|----------------|----------------|
D|----------------|----------------|----------------|----------------|
A|----5-----------|----------------|----------------|----------------|
E|3-3---3---------|----------------|----------------|----------------|

G|----------------|----------------|----------------|----------------|
D|----------------|----------------|----------------|----------------|
A|----2-----------|----------------|----------------|----------------|
E|3-3---3---------|----------------|----------------|----------------|

 | INTRO 2 - 0:22
G|----------------|----------------|----------------|----------------|
D|----------------|----------------|----------------|----------------|
A|----5-----------|5--6535---------|--5-7-8---------|10--8--6--------|
E|3-3---3---------|----------------|8---------------|---------8--6\--|

G|----------------|----------------|----------------|----------------|
D|----------------|3---------------|----------------|-------8-10/12--|
A|----2-----------|--5-3-5---------|--5-7-8---------|10--8-----------|
E|3-3---3---------|----------------|8---------------|----------------|

G|----------------|----------------|----------------|----------------|
D|----------------|----------------|----------------|----------------|
A|----5-----------|5--5-35---------|--5-7-8---------|10--8--6--------|
E|3-3---3---------|----------------|8---------------|---------8--6\--|

G|----------------|----------------|----------------|----------------|
D|----------------|3---------------|----------------|-------8-10/12--|
A|----2-----------|--5-3-5---------|--5-7-8---------|10--8-----------|
E|3-3---3---------|----------------|8---------------|----------------|

 | VERSE 1 - 0:46
G|----------------|----------------|----------------|----------------|
D|----------------|----------------|----------------|----------------|
A|----5-----------|5--6535---------|--5-7-8---------|10--8--6--------|
E|3-3---3---------|----------------|8---------------|---------8--6\--|

G|----------------|----------------|----------------|----------------|
D|----------------|3---------------|----------------|-------8-10/12--|
A|----2-----------|--5-3-5---------|--5-7-8---------|10--8-----------|
E|3-3---3---------|----------------|8---------------|----------------|

G|----------------|----------------|----------------|----------------|
D|----------------|----------------|----------------|----------------|
A|----5-----------|5--6535---------|--5-7-8---------|10--8--6--------|
E|3-3---3---------|----------------|8---------------|---------8--6\--|

G|----------------|----------------|----------------|----------------|
D|----------------|3---------------|----------------|-------8-10/12--|
A|----2-----------|--5-3-5---------|--5-7-8---------|10--8-----------|
E|3-3---3---------|----------------|8---------------|----------------|

G|----------------|----------------|----------------|----------------|
D|----------------|----------------|----------------|----------------|
A|----5-----------|5--5-35---------|--5-7-8---------|10--8--6----12\-|
E|3-3---3---------|----------------|8---------------|---------8------|

G|----------------|----------------|----------------|----------------|
D|----------------|3---------------|----------------|-------8-10/12--|
A|----2-----------|--5-3-5---------|--5-7-8---------|10--8-----------|
E|3-3---3---------|----------------|8---------------|----------------|

G|----------------|----------------|----------------|----------------|
D|----------------|----------------|----------------|----------------|
A|----5-----------|5--6535---------|--5-7-8---------|10--8--6--------|
E|3-3---3---------|----------------|8---------------|---------8--6\--|

G|----------------|----------------|----------------|----------------|
D|----------------|3---------------|----------------|5---7---8---1012|
A|----2-----------|--5-3-5---------|3-5-6---7---8---|----------------|
E|3-3---3---------|----------------|----------------|----------------|

 | CHORUS 1 - 1:36
G|----------------|----------------|----------------|----------------|
D|----------------|----------------|----------------|----------------|
A|----------------|----------------|5~~~~~~~~~~~~~~~|~~~~~~~-----3---|
E|6~~~~~~~~~~~~~~~|~~~~~~~-3-5-6---|----------------|--------5-------|

G|----------------|----------------|----------------|----------------|
D|5~~~~~~~~~~~~~~~|~~~~~~~-7---5---|----------------|----------------|
A|----------------|----------------|3~~~~~~~~~~~~~~~|~~~~~~~~~~~~~~~-|
E|----------------|----------------|----------------|----------------|

G|----------------|----------------|----------------|----------------|
D|----------------|----------------|----------------|----------------|
A|----------------|----------------|5~~~~~~~~~~~~~~~|~~~~~~~-----3---|
E|6~~~~~~~~~~~~~~~|--------3-5-6---|----------------|--------5-------|

G|----------------|----------------|----------------|--------5---5---|
D|5~~~~~~~~~~~~~~~|~~~~~~~-7---5---|----------------|----------------|
A|----------------|----------------|3~~~~~~~~~~~~~~~|~~~~~~~---------|
E|----------------|----------------|----------------|----------------|

G|------------5~~~|~~~~~~~---------|----3-5---------|5~~~------------|
D|----------------|----------------|3-5-------------|----------------|
A|3~~~~~~~~~~~----|--------3---3---|--------3~~~~~~~|----3~~~3~~~~~~-|
E|----------------|----------------|----------------|----------------|

 | VERSE 2 - 2:04
G|----------------|----------------|----------------|----------------|
D|----------------|----------------|----------------|----------------|
A|----5-----------|5--6535---------|--5-7-8---------|10--8--6--------|
E|3-3---3---------|----------------|8---------------|---------8--6\--|

G|----------------|----------------|----------------|----------------|
D|----------------|3---------------|----------------|-------8-10/12--|
A|----2-----------|--5-3-5---------|--5-7-8---------|10--8-----------|
E|3-3---3---------|----------------|8---------------|----------------|

G|----------------|----------------|----------------|----------------|
D|----------------|----------------|----------------|----------------|
A|----5-----------|5--6535---------|--5-7-8---------|10--8--6--------|
E|3-3---3---------|----------------|8---------------|---------8--6\--|

G|----------------|----------------|----------------|----------------|
D|----------------|3---------------|----------------|-------8-10/12--|
A|----2-----------|--5-3-5---------|--5-7-8---------|10--8-----------|
E|3-3---3---------|----------------|8---------------|----------------|

G|----------------|----------------|----------------|----------------|
D|----------------|----------------|----------------|----------------|
A|----5-----------|5--5-35---------|--5-7-8---------|10--8--6----12\-|
E|3-3---3---------|----------------|8---------------|---------8------|

G|----------------|----------------|----------------|----------------|
D|----------------|3---------------|----------------|-------8-10/12--|
A|----2-----------|--5-3-5---------|--5-7-8---------|10--8-----------|
E|3-3---3---------|----------------|8---------------|----------------|

G|----------------|----------------|----------------|----------------|
D|----------------|----------------|----------------|----------------|
A|----5-----------|5--6535---------|--5-7-8---------|10--8--6--------|
E|3-3---3---------|----------------|8---------------|---------8--6\--|

G|----------------|----------------|----------------|----------------|
D|----------------|3---------------|----------------|5---7---8---1012|
A|----2-----------|--5-3-5---------|3-5-6---7---8---|----------------|
E|3-3---3---------|----------------|----------------|----------------|

 | CHORUS 2 - 3:04
G|----------------|----------------|----------------|----------------|
D|----------------|----------------|----------------|----------------|
A|----------------|----------------|5~~~~~~~~~~~~~~~|~~~~~~~-----3---|
E|6~~~~~~~~~~~~~~~|~~~~~~~-3-5-6---|----------------|--------5-------|

G|----------------|----------------|----------------|----------------|
D|5~~~~~~~~~~~~~~~|~~~~~~~-7---5---|----------------|----------------|
A|----------------|----------------|3~~~~~~~~~~~~~~~|~~~~~~~~~~~~~~~-|
E|----------------|----------------|----------------|----------------|

G|----------------|----------------|----------------|----------------|
D|----------------|----------------|----------------|----------------|
A|----------------|----------------|5~~~~~~~~~~~~~~~|~~~~~~~-----3---|
E|6~~~~~~~~~~~~~~~|--------3-5-6---|----------------|--------5-------|

G|----------------|----------------|----------------|--------5---5---|
D|5~~~~~~~~~~~~~~~|~~~~~~~-7---5---|----------------|----------------|
A|----------------|----------------|3~~~~~~~~~~~~~~~|~~~~~~~---------|
E|----------------|----------------|----------------|----------------|

G|------------5~~~|~~~~~~~---------|----3-5---------|5~~~------------|
D|----------------|----------------|3-5-------------|----------------|
A|3~~~~~~~~~~~----|--------3---3---|--------3~~~~~~~|----3~~~3~~~~~~-|
E|----------------|----------------|----------------|----------------|

 REST REST REST REST REST REST REST REST REST REST REST REST REST REST

 | BRIDGE/OUTRO 3:58 (Fade In)

G|----------------|----------------|----------------|----------------|
D|----------------|----------------|----- FADE -----|5---3-------5\--|
A|----------------|----------------|------ IN ------|--------5-3-----|
E|----------------|----------------|----------------|----------------|

G|----------------|----------3-5---|----------------|----------------| <\
D|----------------|5---3---5-------|----------------|----------------|   |
A|----------------|----------------|----5-----------|5-----6-5-3-5---|   |
E|3-3-5-3---------|----------------|3-3---3---------|----------------|   |
                                                                         x6 (Fades Out)
G|----------------|----------------|----------------|----------------|   |  It does variate slightly
D|----------------|--3-5-----------|----------------|5---3-------5\--|   |  but this is the regular
A|----5-----------|-------5-3------|------5---------|--------5-3-----|   |  pattern
E|3-3---3---------|-----------5-3\-|3-3-----3-------|----------------| 

            
            
Suggest correction
Creating personal tab
Creating personal tab
You can edit any tab online and save it as your Personal.

You can edit, replace or remove any tab part or add personal notes – all changes will be seen only by you.

Personal tabs can be accessed anytime from any device, even offline.
Learn more »
Give kudos to tab author, rate the tab!
1 2 3 4 5
comments
print report bad tab
guest
You may want to rate the tab now too:
select rating
Wanna post a correction for this tab? Suggest correction