Oops, an error
Loading. Please wait.

Sleeping Lessons Bass Tab

version 2
version 2

Whole song

Interactive

1,455 views 1 this week
1 commentread comment
1 2 3 4 5
excellent!
x 2
add to favorites
launch autoscroll
font size
0
reset
guitar tuner
Tab Pro tools
  • play this tab
  • loop segment
  • change instrument
  • show fretboard
  • metronome
×
Best way to learn
"Sleeping Lessons"
Autoscroll
slow
fast
+/-
esc
set tempo
stop
Bass does not play at begining of song.


G|-------------------|-------------------|
D|-------------------|-------------------|
A|-------------------|-------------------|
E|-----5--------5----|-----5--------5----|


G|-------------------|-------------------|
D|-------------------|-------------------|
A|-------------------|-------------------|
E|-----0--------0----|-----0--------0----|


G|-------------------|-------------------|
D|-------------------|-------------------|
A|-------------------|-------------------|
E|-----5-7------7----|-----7--------7----|


G|-------------------|-------------------|
D|-------------------|-------------------|
A|-------------------|-------------------|
E|-----0-5------5----|-----5--------5----|


G|-------------------|-------------------|
D|-------------------|-------------------|
A|-------------------|-------------------|
E|-----7-0—-----0----|-----0--------0----|


G|-------------------|-------------------|
D|-------------------|-------------------|
A|-------------------|-------------------|
E|-----7-5------5----|-----5--------5----|


G|-------------------|-------------------|
D|-------------------|-------------------|
A|-------------------|-------------------|
E|-----7-0—-----0----|-----0--------0----|


G|-------------------|-------------------|
D|-------------------|-------------------|
A|-------------------|-------------------|
E|-----7-5------5----|-----5--------5----|


G|-------------------|-------------------|
D|-------------------|-------------------|
A|-------------------|-------------------|
E|-----7-0—-----0----|-----0--------0----|


G|-------------------|-------------------|
D|-------------------|-------------------|
A|-------------------|-------------------|
E|-----5-7------7----|-----7--------7----|


G|-------------------|-------------------|
D|-------------------|-------------------|
A|-------------------|-------------------|
E|-----0-5------5----|-----5--------5----|



G|-------------------|-------------------|
D|-------------------|-------------------|
A|-------------------|-------------------|
E|0000000000000000000|0000000000000000000|

G|-------------------|-------------------|
D|-------------------|-------------------|
A|0000000000000000000|0000000000000000000|
E|-------------------|-------------------|


G|-------------------|-------------------|
D|-------------------|-------------------|
A|-------------------|-------------------|
E|0000000000000000000|0000000000000000000|

G|-------------------|-------------------|
D|-------------------|-------------------|
A|-------------------|-------------------|
E|0000000000000000000|0000000000000000000|


G|-------------------|-------------------|
D|-------------------|-------------------|
A|-------------------|-------------------|
E|7777777777777777777|7777777777777777777|


G|-------------------|-------------------|
D|-------------------|-------------------|
A|0000000000000000000|0000000000000000000|
E|-------------------|-------------------|


G|-------------------|
D|-------------------|
A|-------------------|
E|0000000000000000000|
comments
We did not receive enough feedback on this tab! Please rate:
print report bad tab
1 2 3 4 5
1 comment total.
0 reply
mmcguire1095 wrote on October 26 2013, 05:57 pm

You might have wanted to indicate that the bass doesn't actually come in till about the 54 sec mark

I want to post or [tab]
guest
You may want to rate the tab now too:
select rating
Please do not post tabs as comments. Select "correction" instead!