Oops, an error
Loading. Please wait.

Sleeping Lessons Tab

version 3
version 3

Whole song

Interactive

1,969 views 1 this week
no commentswrite comment
1 2 3 4 5
please rate
add to favorites
launch autoscroll
font size
0
reset
how to read this tab
guitar tuner
Tab Pro tools
  • play this tab
  • loop segment
  • change instrument
  • show fretboard
  • metronome
×
Best way to learn
"Sleeping Lessons"
Autoscroll
slow
fast
+/-
esc
set tempo
stop
Difficulty
novice
This tab is based off the sleeping lessons v. 2 tab. I just changed it slight because
this song is easier to play if you know your scales.

Key is E major

Intro, and repeated for a bit of first verse.
E------------------------------------------------------|
B------------------------------------------------------|
G------------------------------------------------------|
D------------------------------------------------------|
A-----------4--6-4------------------4--6-4-------------|
E--0---4-7-----------7--4--0---4--7----------4---------|

Then go up a string: (you don't need to play both 0 and 5 together, choose 
whatever on feels better
5 is nice because when you go up two frets it is the same pattern)
------------------------------------------------------|
------------------------------------------------------|
------------------------------------------------------|
-----------4--6-4------------------4--6-4-------------|
--0---4-7-----------7--4--0---4--7----------4---------|
--5-----------------------5---------------------------|

then the chorus:
----------------------------------------------------|
----------------------------------------------------|
----------------------------------------------------|x4
----------6--9-6------------------------------------|
-----6-9----------9--6------------------------------|
--7-------------------------------------------------|


------------------------------------------------------|
------------------------------------------------------|
------------------------------------------------------|x4
 -----------4--6-4------------------------------------|
--0---4-7-----------7--4------------------------------|
--5---------------------------------------------------|

Then back to  verse.

When the guitar comes in at the end, then the chords are just simple powerchords
----------------------------------------------------------|
----------------------------------------------------------|
---9------------------------------------------------------|
---9-------------7----------5-----------------------------|
---7-------------7----------5-----------------------------|
-----------------5----------7-----------------------------|
   E5           A5          B5
comments
We did not receive enough feedback on this tab! Please rate:
print report bad tab
1 2 3 4 5
I want to post or [tab]
guest
You may want to rate the tab now too:
select rating
Please do not post tabs as comments. Select "correction" instead!