Oops, an error
Loading. Please wait.

The Rifles Spiral Bass Tab

2,051 views 6 this week
1 commentread comment
1 2 3 4 5
accurate
x 4
add to favorites
launch autoscroll
font size
0
reset
guitar tuner
Tab Pro tools
  • play this tab
  • loop segment
  • change instrument
  • show fretboard
  • metronome
×
Best way to learn
"The Rifles Spiral"
Autoscroll
slow
fast
+/-
esc
set tempo
stop
Contributor
Difficulty
-------------------------------------------------------------------------------
                                              The Rifle's Spiral - The Shins
-------------------------------------------------------------------------------

This is one of my favorite songs by one of my favorite bands.  Enjoy!!!

Song: The Rifle's Spiral
Band: The Shins
Album: Port Of Morrow
Year: 2012
Time: 3:30
Tuning: Standard

Intro (0:00-0:22)
G|---------------------------------------------------------------9-9-9---9---|
D|--------------------------------9-9-9---11-11-11---12-12-12----------------|
A|-9-9-9---11-11-11---12-12-12-----------------------------------------------|     (1x)
E|---------------------------------------------------------------------------|

Verse (0:22-0:40)
G|---------------------------------------------------------------------------|
D|--------------11--11--11---11----------------------------------------------|
A|-14-14-14-999---9---9---99-------------------------------------------------|     (4x)
E|---------------------------------------------------------------------------|

Chorus (0:40-0:58)
G|---------------------------------------------------------------------------|
D|-----------11--11--11---11-------------------------------------------------|
A|-7-7-7-77-9---9---9---99---------------------------------------------------|     (3x)
E|---------------------------------------------------------------------------|

G|---------------------------------------------------------------------------|
D|---------------------------------------------------------------------------|
A|-5-5-5-55-7-7-7-77---------------------------------------------------------|     (1x)
E|---------------------------------------------------------------------------|

Verse (0:58-1:16)
G|---------------------------------------------------------------------------|
D|--------------11--11--11---11----------------------------------------------|
A|-14-14-14-999---9---9---99-------------------------------------------------|     (4x)
E|---------------------------------------------------------------------------|

Chorus (1:16-1:34)
G|---------------------------------------------------------------------------|
D|-----------11--11--11---11-------------------------------------------------|
A|-7-7-7-77-9---9---9---99---------------------------------------------------|     (3x)
E|---------------------------------------------------------------------------|

G|---------------------------------------------------------------------------|
D|---------------------------------------------------------------------------|
A|-5-5-5-55-7-7-7-77---------------------------------------------------------|     (1x)
E|---------------------------------------------------------------------------|

Instrumental Break/Keyboard Solo (1:34-1:52)
G|-------------------9--------9----------------------------------------------|
D|--------------11------11---------------------------------------------------|
A|-14-14-14-999---9---9---99-------------------------------------------------|     (4x)
E|---------------------------------------------------------------------------|

Bridge (1:52-2:10)
G|---------------------------------------------------------------9-9-9---9---|
D|--------------------------------9-9-9---11-11-11---12-12-12----------------|
A|-9-9-9---11-11-11---12-12-12-----------------------------------------------|     (1x)
E|---------------------------------------------------------------------------|

Bass Solo (2:10-2:19)
G|-------------------9--------9----------------------------------------------|
D|--------------11------11---------------------------------------------------|
A|-14-14-14-999---9---9---99-------------------------------------------------|     (2x)
E|---------------------------------------------------------------------------|

Verse (2:19-2:37)
G|---------------------------------------------------------------------------|
D|--------------11--11--11---11----------------------------------------------|
A|-14-14-14-999---9---9---99-------------------------------------------------|     (4x)
E|---------------------------------------------------------------------------|

Chorus (2:37-2:55)
G|---------------------------------------------------------------------------|
D|-----------11--11--11---11-------------------------------------------------|
A|-7-7-7-77-9---9---9---99---------------------------------------------------|     (3x)
E|---------------------------------------------------------------------------|

G|---------------------------------------------------------------------------|
D|---------------------------------------------------------------------------|
A|-5-5-5-55-7-7-7-77---------------------------------------------------------|     (1x)
E|---------------------------------------------------------------------------|

Outro (2:55-3:13)
G|---------------------------------------------------------------------------|
D|---------------------------------------------------------------------------|
A|-14--14--14--14------------------------------------------------------------|     (8x)
E|---------------------------------------------------------------------------|

End On B (3:13)
G|---------------------------------------------------------------------------|
D|---------------------------------------------------------------------------|
A|-14------------------------------------------------------------------------|
E|---------------------------------------------------------------------------|

 Make sure to listen to the song for timing.

| /  slide up
| \  slide down
| h  hammer-on
| p  pull-off
| ~  vibrato
| +  harmonic
| x  Mute note
comments
print report bad tab
1 comment total.
0 reply
Thidiablo wrote on February 1 2016, 09:33 am

I think the last verse is like the bass solo, I might be wrong. however the last note has a slide in it I think its the higher B correct me if I am wrong

I want to post or [tab]
guest
You may want to rate the tab now too:
select rating
Please do not post tabs as comments. Select "correction" instead!