Oops, an error
Loading. Please wait.

Those To Come Tab

version 2
version 2

Whole song

Interactive

18,792 views 30 this week
4 commentsread comments
1 2 3 4 5
accurate
x 10
add to favorites
launch autoscroll
font size
0
reset
how to read this tab
guitar tuner
Tab Pro tools
  • play this tab
  • loop segment
  • change instrument
  • show fretboard
  • metronome
Autoscroll
slow
fast
+/-
esc
set tempo
stop
THE SHINS - "Those To Come" (from "Chutes Too Narrow," 2003)

tabbed by Francesco Forin
send comments to forin@gmx.it
--

pretty easy to play... just play these arpeggios over and over.
I tried to indicate how the lyrics match up, but you'll get a better feel by listening 
the song.
enjoy!

standard tuning

	D  {repeat}
E|--------------------------|
B|-----------3-----0---3----|
G|--------2-----2-----------|
D|-----0--------------------|
A|--------------------------|
E|--------------------------|


	A  {repeat}
E|--------------------------|
B|--------------------------|
G|-----------2-----0---2----|
D|--------2-----2-----------|
A|-----0--------------------|
E|--------------------------|


	Em  {repeat}
E|-----------0-----2---0----|
B|--------0-----0-----------|
G|--------------------------|
D|-----2--------------------|
A|--------------------------|
E|--------------------------|


   D			D
Eyeless in the morning sun you were
   D		   D
Pale and mild, a modern girl
   D			    D
Taken with thought, still prone to care
   D                D
Making tea in your underwear
          A
You went out in the yard to find


   A		       A
Something to eat and clear your mind
   A		     A	      D
Something bad inside me went away


   D		     D
Quaking leaves and broken light
   D		    D
Shifting skin the coming night
   D			  D
The bearers of all good things arrive
   D		   D
Climb inside us, twist and cry
   A
A kiss on your molten eyes


   A	            A
Myriad lives like blades of grass
   A		    A		 D
Yet to be realized, bow as they pass


   D
They are cold,
   D
Still,
   D
Waiting in the ether,
   Em
To form,
 Em
Feel,
 Em
Kill,
 Em
Propagate,
 Em       D
Only to die
[x2]


  D
Dissolve
  D
Magically,
  D
Absurdly,
        Em
They'll end,
  Em
Leave,
  Em
Dissipate,
  Em
Coldly
        Em
And strangely
   D
Return
comments
print report bad tab
4 comments total. Showing first comments.
0 reply
rigo07 wrote on December 27 2006, 04:53 pm


Em {repeat}
E|-----------0-----2---0----|
B|--------0-----0-----------|
G|--------------------------|
D|-----2--------------------|
A|--------------------------|
E|--------------------------|


substitue the above with this,it sounds better to me.

Dm {repeat}
E|-----------------1--------|
B|-----------3---------2----|
G|--------2-----2-----------|
D|-----0--------------------|
A|--------------------------|
E|--------------------------|


0 reply
themanhimself wrote on January 29 2009, 06:58 pm

Good tab, love when people put the music in relation to the words, great help to beginners.

0 reply
iwrate wrote on July 16 2015, 04:34 pm

Just one small change to Em chord...

Em {repeat}
E|-----------0-----3---0----|
B|--------0-----0-----------|
G|--------------------------|
D|-----2--------------------|
A|--------------------------|
E|--------------------------|

I want to post or [tab]
guest
You may want to rate the tab now too:
select rating
Please do not post tabs as comments. Select "correction" instead!