Oops, an error
Loading. Please wait.

Turn On Me Tab

version 2
version 2

Whole song

24,239 views 30 this week
4 commentsread comments
1 2 3 4 5
excellent!
x 9
add to favorites
launch autoscroll
font size
0
reset
how to read this tab
guitar tuner
Tab Pro tools
  • play this tab
  • loop segment
  • change instrument
  • show fretboard
  • metronome
Autoscroll
slow
fast
+/-
esc
set tempo
stop
Contributor
-------------------------------------------------------------------------------
                             Turn On Me - The Shins
-------------------------------------------------------------------------------
Tabbed by:xx_mclovin_xx
Email:

Tuning:eadgbe

other one was good but didn't have the solo

Intro
E|-----------------------------------------|
B|-----------------------------------------|
G|-------0---------------------------------|
D|---2h3-----2h3-2----2----------0---------|
A|-3-------3--------3---0-3---2h3---2h3-2--|
E|---------------------------3-----3-------|x2

Verse
E|-----------------------------------------|
B|-----------------------------------------|
G|-------0---------------------------------|
D|---2h3-----2h3-2----2----------0---------|
A|-3-------3--------3---0-3---2h3---2h3-2--|
E|---------------------------3-----3-------|x1

E|----------------------------------|
B|----------------------------------|
G|-------0--------------------------|
D|---2h3-----2h3-2--------0---------|
A|-3-------3----------2h3----2h3-2--|
E|-------------------3------3-------|x1

Chorus
*Strumming not shown*
E|-1-0-3-0-3-|
B|-1-1-3-1-3-|
G|-2-0-0-2-0-|
D|-3-2-0-2-0-|
A|-3-3-2-0-2-|
E|-1-0-3-0-3-|x3

For the Fourth Time
E|-1-0-3-1-3-|
B|-1-1-3-3-3-|
G|-2-0-0-2-0-|
D|-3-2-0-0-0-|
A|-3-3-2-0-2-|
E|-1-0-3-0-3-|x1

Verse 2
E|-----------------------------------------|
B|-----------------------------------------|
G|-------0---------------------------------|
D|---2h3-----2h3-2----2----------0---------|
A|-3-------3--------3---0-3---2h3---2h3-2--|
E|---------------------------3-----3-------|x1

E|----------------------------------|
B|----------------------------------|
G|-------0--------------------------|
D|---2h3-----2h3-2--------0---------|
A|-3-------3----------2h3----2h3-2--|
E|-------------------3------3-------|x3

Chorus 2
*Strumming not shown*
E|-1-0-3-0-3-|
B|-1-1-3-1-3-|
G|-2-0-0-2-0-|
D|-3-2-0-2-0-|
A|-3-3-2-0-2-|
E|-1-0-3-0-3-|x3

For the Fourth Time
E|-1-0-3-(1)-(3)-|
B|-1-1-3-(3)-(3)-|
G|-2-0-0-(2)-(0)-|
D|-3-2-0-(0)-(0)-|
A|-3-3-2-(0)-(2)-|
E|-1-0-3-(0)-(3)-|x1
*Notes in parenthesis, repeat three times*

Solo
Guitar 1
E|-------------------------------------------------------------------|
B|-------------------------------------------------------------------|
G|-------------------------------------------------------------------|
D|-------------------------------------------------------------------|
A|-5/1010101010101010101010101010101010101010101010101010\55555555555|
E|-3/8-8-8-8-8-8-8-8-8-8-8-8-8-8-8-8-8-8-8-8-8-8-8-8-8-8-\33333333333|x4

Guitar 2
Comes in after Guitar 1 plays riff twice
E|-----3---3-------3---3-----------------------|
B|-5-----------5-------------------------------|
G|---5---5---5---5---5---5-4h5h7-0-0-4h5h7-0-0-|
D|---------------------------------------------|
A|---------------------------------------------|
E|---------------------------------------------|

E|----3---3--------3--------------------------------|
B|-5-----------5-----6-5-3----------------------6-5-|
G|---5---5---5---5--------5-4h5h7-4h5h7-0-4-5-7-7-5-|
D|--------------------------------------------------|
A|--------------------------------------------------|
E|--------------------------------------------------|

Chorus 3
*Strumming not shown*
E|-1-0-3-0-3-|
B|-1-1-3-1-3-|
G|-2-0-0-2-0-|
D|-3-2-0-2-0-|
A|-3-3-2-0-2-|
E|-1-0-3-0-3-|x3

For the Fourth Time
E|-1-0-3-(1)-(3)-|
B|-1-1-3-(3)-(3)-|
G|-2-0-0-(2)-(0)-|
D|-3-2-0-(0)-(0)-|
A|-3-3-2-(0)-(2)-|
E|-1-0-3-(0)-(3)-|x1
*Notes in parenthesis, repeat three times*

The End


| /  slide up
| \  slide down
| h  hammer-on
| p  pull-off
| ~  vibrato
| +  harmonic
| x  Mute note
===============================================================================
comments
print report bad tab
4 comments total. Showing first comments.
0 reply
acolddayinhoth wrote on October 8 2009, 07:04 pm

Very well done!

+1 reply
Ethan A wrote on January 21 2010, 08:21 pm

very good except the chorus goes F, G, C, then F again. Theres no Am. kinda like going along then reverse.

0 reply
Owlspot wrote on January 8 2013, 12:11 am

This tab is definitely my favorite for Turn On Me :) but there is a small error in the 3rd measure of the x3 segment of Verse 2
This tab says:
E|----------------------------------|
B|----------------------------------|
G|-------0--------------------------|
D|---2h3-----2h3-2--------0---------|
A|-3-------3----------2h3----2h3-2--|
E|-------------------3------3-------|x3

And after listening to the song, I'm pretty sure it should be:
E|----------------------------------|
B|----------------------------------|
G|-------0--------------------------|
D|---2h3-----2------------0---------|
A|-3-------3---0-3----2h3----2h3-2--|
E|-------------------3------3-------|x3

Hope this helps :)

I want to post or [tab]
guest
You may want to rate the tab now too:
select rating
Please do not post tabs as comments. Select "correction" instead!