Oops, an error
Loading. Please wait.

Mama Said Bass Tab

46 views 3 this week
no commentswrite comment
1 2 3 4 5
3 more votes to show rating
add to favorites
launch autoscroll
font size
0
reset
guitar tuner
Autoscroll
slow
fast
+/-
esc
set tempo
stop
Help us to improve Ultimate-Guitar.com Take our survey!
×
Author
Difficulty
intermediate
[Intro]
G|------------------------|
D|-9---9--9-8-6----6----6-|
A|---9-----------6----6---|
E|------------------------|
             x2

[Chorus]: "Mama said there'll be days like this..."
G|----------------------------------------------|
D|-9---9--9-8-6----6----6-----------------------|
A|---9-----------6----6----7--7-9--9----7-7-7-9-|
E|-----------------------------------7----------|
                        x2

[Verse]: "I went walking the other day..."
G|-----------------------------------------------------------------------------------|
D|-9---9--9-8-6----6----6------------------------9---9--9-8-6----6----6--------------|
A|---9-----------6----6----7--7-9--9----7-7-7-9----9-----------6----6----7-7--9-9----|
E|-----------------------------------7---------------------------------------------7-|


[Chorus]: "Mama said there'll be days like this..."
G|-----------------------------------------------------------------------------------|
D|-9---9--9-8-6----6----6------------------------9---9--9-8-6----6----6--------------|
A|---9-----------6----6----7--7-9--9----7-7-7-9----9-----------6----6----7--7-9--9---|
E|-----------------------------------7---------------------------------------------7-|
                       

[Bridge]: "My eyes were wide open..."
G|----------------------------------------------------------------|
D|---------9------------------9-9-----9-9--6---6------------------|
A|-7--7--9----7---7----9-7-6-------6---------6----4-4---9---9---9-|
E|--------------7----7--------------------------------------------|


[Chorus]: "Mama said there'll be days like this..."
G|--------------------------------------------------------------------------------------------|
D|-9---9--9-8-6----6----6------------------------9---9--9-8-6----6----6-----------------------|
A|---9-----------6----6----7--7-9--9----7-7-7-9----9-----------6----6----7--7-9--9----7-7-7-9-|
E|-----------------------------------7---------------------------------------------7----------|


[Bridge]: "And then she said..."
G|----------------------------------------------------------------|
D|---------9------------------9-9-----9-9--6---6------------------|
A|-7--7--9----7---7----9-7-6-------6---------6----4-4---9---9---9-|
E|--------------7----7--------------------------------------------|


[Chorus]: "Mama said there'll be days like this..."
G|-----------------------------------------------------------------------------------|
D|-9---9--9-8-6----6----6------------------------9---9--9-8-6----6----6--------------|
A|---9-----------6----6----7--7-9--9----7-7-7-9----9-----------6----6----7--7-9--9---|
E|-----------------------------------7---------------------------------------------7-|


[Outro]: "Mama said, hey hey hey..."
G|------------------------|
D|-9---9--9-8-6----6----6-|
A|---9-----------6----6---|
E|------------------------|
             x6
Suggest correction
Give kudos to tab author, rate the tab!
1 2 3 4 5
comments
print report bad tab
guest
You may want to rate the tab now too:
select rating
Wanna post a correction for this tab? Suggest correction