Oops, an error
Loading. Please wait.

Will You Still Love Me Tomorrow Bass Tab

88 views 15 this week
no commentswrite comment
1 2 3 4 5
3 more votes to show rating
add to favorites
launch autoscroll
font size
0
reset
guitar tuner
Autoscroll
slow
fast
+/-
esc
set tempo
stop
Help us to improve Ultimate-Guitar.com Take our survey!
×
Author
Difficulty
intermediate
[Intro]
G|----------------------------|
D|---5-5----5-5----5-5----5-5-|
A|-3------3------3------3-----|
E|----------------------------|


[Verse 1]: "Tonight you're mine, completely..."
G|------------------------------------------------------------------------------------|
D|---5-5----5-5-------------5----5-5----5-5----5-5----5-5----9-9----9-9---------------|
A|-3------3--------3-3----5----3------3------5------5------7------7--------7-7----7---|
E|---------------1------3------------------------------------------------5------5---3-|

G|----------------------------|
D|-----------------5-5----5-5-|
A|---3------5----3------3-----|
E|-1---1--3---3---------------|


[Verse 2]: "Is this a lasting, treasure..."
G|------------------------------------------------------------------------------------|
D|---5-5----5-5-------------5----5-5----5-5----5-5----5-5----9-9----9-9---------------|
A|-3------3--------3-3----5----3------3------5------5------7------7--------7-7----7---|
E|---------------1------3------------------------------------------------5------5---3-|

G|----------------------------|
D|-----------------5-5----5-5-|
A|---3------5----3------3-----|
E|-1---1--3---3---------------|


[Bridge]: "Tonight with words, unspoken..."
G|--------------------------------------------------------------------------------------------|
D|-------------------------------------------------------------------10--10-10--10------------|
A|-8--8-8--8--8--8-8--8--7--7-7--7--7--7-7--7--8--8-8--8--8--8-8--8-----------------7--7-7--7-|
E|--------------------------------------------------------------------------------------------|

G|--------------------------------------------------------------------------------|
D|----------------------------------------------------------------------5--5-5--5-|
A|-8--8-8--8--8--8-8--8--7--7-7--7--7--7-7--7---------5-5-5--8--8-8--8------------|
E|---------------------------------------------5-5-5------------------------------|


[Verse 3]: "Id like to know, that your love..."
G|------------------------------------------------------------------------------------|
D|---5-5----5-5-------------5----5-5----5-5----5-5----5-5----9-9----9-9---------------|
A|-3------3--------3-3----5----3------3------5------5------7------7--------7-7----7---|
E|---------------1------3------------------------------------------------5------5---3-|

G|----------------------------|
D|-----------------5-5----5-5-|
A|---3------5----3------3-----|
E|-1---1--3---3---------------|


[Instrumental + final chorus]
G|------------------------------------------------------------------------------------|
D|---5-5----5-5-------------5----5-5----5-5----5-5----5-5----9-9----9-9---------------|
A|-3------3--------3-3----5----3------3------5------5------7------7--------7-7----7---|
E|---------------1------3------------------------------------------------5------5---3-|

G|----------------------------|
D|-----------------5-5----5-5-|
A|---3------5----3------3-----|
E|-1---1--3---3---------------|
              x3
Suggest correction
Give kudos to tab author, rate the tab!
1 2 3 4 5
comments
print report bad tab
guest
You may want to rate the tab now too:
select rating
Wanna post a correction for this tab? Suggest correction