Oops, an error
Loading. Please wait.

Gone chords

1,345 views 9 this week
no commentswrite comment
1 2 3 4 5
x 16
add to favorites
×
Save as Personal and add changes to this tab that will be seen only by you. Learn more ›
×
You can save this tab as Personal to edit and correct it or add notes. All changes will be seen only by you. Learn more »
launch autoscroll
font size
0
reset
transpose
0
reset
display chords
guitar tuner
edit
Autoscroll
slow
fast
+/-
esc
set tempo
stop
Author
Strumming
There is no strumming pattern for this song yet. and get +5 IQ
SONG:   GONE
ARTIST: THE SHOW PONIES
TAB BY: DON CZARSKI
EMAIL:  GUITARZAN7@HOTMAIL.COM


                    GONE
              THE SHOW PONIES


INTRO: Played throughout the entire song. 
       INTRO, VERSES, AND BREAKS. The ONLY
       place NOT played is the CHORUS.

   RIFF: DRONING OPEN D STRING
E ------------------------------
B ------------------------------
G ------------------------------
D -0-0-0-0-0-0-0-0-0-0-0-0-0-0--
A ------------------------------
E ------------------------------


VERSE: RIFF: DRONING OPEN D STRING
(D)                            (G)   (D)
Well he told me that we’d grow old together. 
                                   (A)
Yeah, he told me that we’d be two birds of a feather,
          (D)                      (G)     (D)
But he’s gone, gone, gone like the day is long. 
                                       (A)      (D)          
Oh, he’s gone, gone, gone and it just seems so wrong.


BREAK: RIFF: DRONING OPEN D STRING


VERSE: RIFF: DRONING OPEN D STRING
(D)                                 (G)          (D)
Well he told me that I was the only one he doted on. 
                                                  (A)                                                      
Then I saw him in the back of a barn necking on a dirty blonde.
              (D)                       (G)           (D)
And now he’s gone, gone, gone like some sad pathetic song. 
                                       (A)      (D)          
Oh, he’s gone, gone, gone and it just seems so wrong.


CHORUS:
      D         C#m         Bm   G
He’s gone, he's gone, he's long gone
      D                        A        D
He’s gone, gone, gone and it seems so wrong. 

NOTE: In the CHORUS you can also play the part
      like this (BASS RUN):

E ----------------------------------------
B ----------------------------------------
G ----------------------------------------
D ----0---0-------------------------------
A ---------------0---4-----4---2-0--------
E ------------------------------------3--- 
    He’s gone, he's gone, he's long gone


E -----------------------------------------
B -----------------------------------------
G -----------------------------------------
D -----0--------------------------------0--
A ----------4-----2----0-------------------
E ------------------------3----2---0-------                                
He’s gone, gone, gone and it seems so wrong. 


      D         C#m         Bm   G
He’s gone, he's gone, he's long gone
      D                        A        D
He’s gone, gone, gone and it seems so wrong. 

NOTE: In the CHORUS you can also play the part
      like this (BASS RUN):

E ----------------------------------------
B ----------------------------------------
G ----------------------------------------
D ----0---0-------------------------------
A ---------------0---4-----4---2-0--------
E ------------------------------------3--- 
    He’s gone, he's gone, he's long gone


E -----------------------------------------
B -----------------------------------------
G -----------------------------------------
D -----0--------------------------------0--
A ----------4-----2----0-------------------
E ------------------------3----2---0-------                                
He’s gone, gone, gone and it seems so wrong. 


BREAK:  RIFF: DRONING OPEN D STRING


VERSE:  RIFF: DRONING OPEN D STRING
(D)                                (G)          (D)
Well he told me that he’d be at my every beckon call, 
                                             (A)
But when I needed him the most he was never there at all. 
             (D)                       (G)     (D)
And now he’s gone, gone, gone like the day is long. 
                                       (A)      (D)          
Oh, he’s gone, gone, gone and it just seems so wrong.


CHORUS:
      D         C#m         Bm   G
He’s gone, he's gone, he's long gone
      D                        A        D
He’s gone, gone, gone and it seems so wrong. 

      D         C#m         Bm   G
He’s gone, he's gone, he's long gone
      D                        A        D
He’s gone, gone, gone and it seems so wrong. 


BREAK: RIFF: DRONING OPEN D STRING


VERSE: STARTS ACAPELLA

Well he called me his baby, his little honeybee. 

But come to find out he was just chasing sweets.
              (D)                       (G)          (D)
             RIFF: BEGIN DRONING OPEN D STRING
And now he’s gone, gone, gone like some sad pathetic song. 
                                       (A)      (D)          
Oh, he’s gone, gone, gone and it just seems so wrong.


CHORUS:
      D         C#m         Bm   G
He’s gone, he's gone, he's long gone
      D                        A        D
He’s gone, gone, gone and it seems so wrong. 

      D         C#m         Bm   G
He’s gone, he's gone, he's long gone
      D                        A        D
He’s gone, gone, gone and it seems so wrong. 

      D                        A        D
He’s gone, gone, gone and it seems so wrong. 

ACAPELLA:                                     
He’s gone, gone, gone and it seems so wrong. 



            
            
Suggest correction
Creating personal tab
Creating personal tab
You can edit any tab online and save it as your Personal.

You can edit, replace or remove any tab part or add personal notes – all changes will be seen only by you.

Personal tabs can be accessed anytime from any device, even offline.
Learn more »
comments
print report bad tab
guest
You may want to rate the tab now too:
select rating
Wanna post a correction for this tab? Suggest correction