Oops, an error
Loading. Please wait.

Iscariot tab

version 1
version 1

Whole song

Interactive

1,060 views 3 this week
5 commentsread comments
1 2 3 4 5
x 5
add to favorites
×
Save as Personal and add changes to this tab that will be seen only by you. Learn more ›
×
You can save this tab as Personal to edit and correct it or add notes. All changes will be seen only by you. Learn more »
launch autoscroll
font size
0
reset
how to read this tab
guitar tuner
edit
Autoscroll
slow
fast
+/-
esc
set tempo
stop
Iscariot by The Showdown
Tabbed By: Daniel Heffner




INTRO
E|--------------------------------------|
B|--------------------------------------|
G|----10p9------------------------------|    x4
D|--------12p10p9--------9h10h12p10p19--|
A|---------------12p10h12-------------12|
D|--------------------------------------|


VERSE
E|---------------------------------------------------|
B|---------------------------------------------------|
G|---------------------------------------------------|      x4
D|----------------------------------------2p0--------|
A|----00h3p0h3p0-00h3p0h3p0-00h3p0h5p0h3p0---3p0-----|
D|----------------------------------------------3h4h5|


CHORUS
E|----------------------------------------|
B|----------------------------------------|
G|----------------------------------------|
D|----3333-/5555---------------2p0--------|
A|----3333-/5555-00h3p0h5p0h3p0---3p0-----|
D|----3333-/5555---------------------3h4h5|



E|--------------|
B|--------------|
G|----3333-/5555|
D|----3333-/5555|
A|----3333-/5555|
D|----3333-/5555|



INTRO x4




SOLO
E|----------------------------------------|
B|----------------------------------------|
G|----10XX10XXXX10XX10-/9XX9XXXXXX--------|
D|----10XX10XXXX10XX10-/7XX7XXXXXX7h10p9p7|
A|----------------------------------------|
D|----------------------------------------|




E|---------------------------------------------|
B|---------------------------------------------|
G|----10XX10XXXX10XX10-/9XX9XX---------9*9*7*7*|
D|----10XX10XXXX10XX10-/7XX7XX-9*9*7*7*--------|
A|---------------------------------------------|
D|---------------------------------------------|



E|----------------------------------------|
B|----------------------------------------|
G|----10XX10XXXX10XX10-/9XX9XXXXXX--------|
D|----10XX10XXXX10XX10-/7XX7XXXXXX7h10p9p7|
A|----------------------------------------|
D|----------------------------------------|



E|------------------------------------------------------------|
B|------------------------------------------------------------|
G|----10XX10XXXX10XX9-----------------------------------------|
D|----10XX10XXXX10XX7-7h10p7h9p7------------------------------|
A|------------------------------10p7h10p7h9p7-7h9h10----------|
D|------------------------------------------------------------|



E|--------------------------------------------------------|
B|--------------------------------------------------------|
G|--------------------------------------------------------|     x2
D|--------------------------------------------------------|
A|----0000-3p0-0-5p0-0-7p0-00-8p0-0000-7p0-00-5p07p03p05p0|
D|--------------------------------------------------------|



INTRO x2

E|-----|
B|-----|
G|--2--|   Let Ring Until End
D|--2--|
A|--0--|
D|-----|
Suggest correction
Creating personal tab
Creating personal tab
You can edit any tab online and save it as your Personal.

You can edit, replace or remove any tab part or add personal notes – all changes will be seen only by you.

Personal tabs can be accessed anytime from any device, even offline.
Learn more »
comments
print report bad tab
5 comments total. Showing first comments.
0 reply
Inanimate 10 May 12, 2006 08:16 AM

The intro actually goes like this:

INTRO
e|---------------------------------------------|
B|---------------------------------------------|
G|--14p12--------------------------------------| x4
D|--------15-14-12----------12-14-15-14-12-----|
A|-----------------15-13-15----------------15--|
D|---------------------------------------------|

0 reply
KevP714 119 Aug 30, 2006 08:56 AM

thats not it either!

0 reply
Kalthor 10 Sep 03, 2006 12:47 PM

You did a great job on this tab, I don't think there's anything wrong with it.

guest
You may want to rate the tab now too:
select rating
Wanna post a correction for this tab? Suggest correction