Oops, an error
Loading. Please wait.

Laid To Rest intro tab

version 1
version 1

Intro

Whole song

Interactive

1,501 views 1 this week
no commentswrite comment
1 2 3 4 5
x 3
add to favorites
×
Save as Personal and add changes to this tab that will be seen only by you. Learn more ›
×
You can save this tab as Personal to edit and correct it or add notes. All changes will be seen only by you. Learn more »
launch autoscroll
font size
0
reset
how to read this tab
guitar tuner
edit
Autoscroll
slow
fast
+/-
esc
set tempo
stop
Author
Difficulty
Laid to Rest by The Showdown
From A Chorus of Obliteration

Tabbed by Ramie Martens weech_o77@hotmail.com

tuned down full step, acoustic guitar fingerstyle intro

E-3---3--3---3-|3---3--3-----3-|3---3--3-------3|3----12--12--|
B----0-0--3-3-3|-0-0-0--0h1-1-1|-1-1-1--0h1-3-3-|-0-12----12--|
G---0------0---|--0--------0---|--0----------0--|--0----0-----|
D--------------|0------0-------|----------------|-------------|
A--------------|---------------|3------0--------|-------------|
E-0------0-----|---------------|----------------|0------------|
         *= natural harmonic

E-3---3--3---3-|3---3--3-----3-|3---3--3-------3|3----12-------12*------|
B--0-0-0--3-3-3|-0-0-0--0h1-1-1|-1-1-1--0h1-3-3-|-0-12-------12*--12*---|
G---0------0---|--0--------0---|--0----------0--|--0----0--12*------12--|
D--------------|0------0-------|----------------|-----------------------|
A--------------|---------------|3------0--------|-----------------------|
E-0------0-----|---------------|----------------|0--------0-------------|
                                                          "Laid to rest..."

E-7p0-----12p0----|5p0-----3p0----|----5---7--7--|---0------0---|
B----0-0------0-0-|---0-0-----0-0-|7--7-7--8-8-8-|--3-3----3-3--|
G-----0-0------0-0|----0-0-----0-0|7-7---7--9---9|-0---0--0---0-|
D-----------------|---------------|--------------|--------------|
A-----------------|---------------|--------------|3------3------|
E-0-------0-------|0-------0------|0-------0-----|--------------|

E-7p0-----12p0----|5p0-----3p0----|---0------0--|--------------|
B----0-0------0-0-|---0-0-----0-0-|--3-3----3-3-|--7-7----8-8--|
G-----0-0------0-0|----0-0-----0-0|-0---0--0---0|---9-7----9-7-|
D-----------------|---------------|-------------|--------------|
A-----------------|---------------|3------3-----|0------0------|
E-0-------0-------|0-------0------|-------------|--------------|

E--------------|---0------2--|---0------0--|--------------|
B---8-8----7-7-|--3-3----3-3-|--3-3----3-3-|--7-7----8-8--|
G----9-7----9-7|-0---0--0---0|-0---0--0---0|---9-7----9-7-|
D--------------|-------0-----|-------------|--------------|
A--------------|-------------|3------3-----|0------0------|
E-0------0-----|3------------|-------------|--------------|

E--------------|---0------2--|3---3--3---3-|3---3--3-----3--|
B---8-8----7-7-|--3-3----3-3-|-0-0-0--3-3-3|-0-0-0--0h1-1-1-|
G----9-7----9-7|-0---0--0---0|--0------0---|--0--------0----|
D--------------|-------0-----|-------------|0------0--------|
A--------------|-------------|-------------|----------------|
E-0------0-----|3------------|0------0-----|----------------|
 "comfort and rest in His arms..."

E-3---3--3-------3|3----12-------12*-----|3---3--3---3-|3---3--3-----3--|
B--1-1-1--0h1-3-3-|-0-12-------12*--12*--|-0-0-0--3-3-3|-0-0-0--0h1-1-1-|
G---0----------0--|--0----0--12*------12*|--0------0---|--0--------0----|
D-----------------|----------------------|-------------|0------0--------|
A-3------0--------|----------------------|-------------|----------------|
E-----------------|0--------0------------|0------0-----|----------------|

E-3---3--3-------3|3----12--12--|
B--1-1-1--0h1-3-3-|-0-12----12--|
G---0----------0--|--0----0-----|
D-----------------|-------------|
A-3------0--------|-------------|
E-----------------|0------------|
                              "what was left..."

E-7p0-----12p0----|5p0-----3p0----|----5---7--7--|---0------0--|---0------0---|
B----0-0------0-0-|---0-0-----0-0-|7--7-7--8-8-8-|--3-3----3-3-|--3-3----3-3--|
G-----0-0------0-0|----0-0-----0-0|7-7---7--9---9|-0---0--0---0|-0---0--0---0-|
D-----------------|---------------|--------------|-------------|--------------|
A-----------------|---------------|--------------|3------3-----|3------3------|
E-0-------0-------|0-------0------|0-------0-----|-------------|--------------|

E-7p0-----12p0----|5p0-----3p0----|----5---7--7--|---0------0--|--------------|
B----0-0------0-0-|---0-0-----0-0-|7--7-7--8-8-8-|--3-3----3-3-|--7-7----8-8--|
G-----0-0------0-0|----0-0-----0-0|7-7---7--9---9|-0---0--0---0|---9-7----9-7-|
D-----------------|---------------|--------------|-------------|--------------|
A-----------------|---------------|--------------|3------3-----|0------0------|
E-0-------0-------|0-------0------|0-------0-----|-------------|--------------|

E--------------|---0------2--|---0------0--|--------------|
B---8-8----7-7-|--3-3----3-3-|--3-3----3-3-|--7-7----8-8--|
G----9-7----9-7|-0---0--0---0|-0---0--0---0|---9-7----9-7-|
D--------------|-------0-----|-------------|--------------|
A--------------|-------------|3------3-----|0------0------|
E-0------0-----|3------------|-------------|--------------|

E--------------|---0------2--|12--|
B---8-8----7-7-|--3-3----3-3-|12--|
G----9-7----9-7|-0---0--0---0|----|
D--------------|-------0-----|----|
A--------------|-------------|----|
E-0------0-----|3------------|----|
           "only comfort and rest in His arms"


well that's about the whole first 2 1/2 minutes of the nearly 6 min. song,
and i'm not gonna tab the whole thing at this point. maybe i'll feel pretty
ambitious and i'll do the rest, but what you're looking at here is about 4
days worth of listen, pause, play, type in that order over and over again,
and i wouldn't have done it except that i couldn't find any tabs at all on
the showdown, and they're a pretty awesome band. so here you fellow guitar
players can learn this amazing song- keep on rocking for Jesus- weech_o77

            
            
Suggest correction
Creating personal tab
Creating personal tab
You can edit any tab online and save it as your Personal.

You can edit, replace or remove any tab part or add personal notes – all changes will be seen only by you.

Personal tabs can be accessed anytime from any device, even offline.
Learn more »
Give kudos to tab author, rate the tab!
1 2 3 4 5
comments
print report bad tab
guest
You may want to rate the tab now too:
select rating
Wanna post a correction for this tab? Suggest correction