Oops, an error
Loading. Please wait.

Temptation Come My Way intro tab

version 1
version 1

Intro

Whole song

1,729 views 1 this week
7 commentsread comments
1 2 3 4 5
x 4
add to favorites
×
Save as Personal and add changes to this tab that will be seen only by you. Learn more ›
×
You can save this tab as Personal to edit and correct it or add notes. All changes will be seen only by you. Learn more »
launch autoscroll
font size
0
reset
how to read this tab
guitar tuner
edit
Autoscroll
slow
fast
+/-
esc
set tempo
stop
Intro clean (x2)
e-----------------------------------------------------------------|
b-----------------------------------------------------------------|
g-----------------------------------------------------------------|
d-----------------------------------------------------------------|
a---------------3--5~---------------3--5--------------------------|
D---0-0--2h3h5----------0-0--2h3h5-------6-5----------------------|

repeat w/ dist.


thats all i got so far. but i'm working on the rest.

            
            
Suggest correction
Creating personal tab
Creating personal tab
You can edit any tab online and save it as your Personal.

You can edit, replace or remove any tab part or add personal notes – all changes will be seen only by you.

Personal tabs can be accessed anytime from any device, even offline.
Learn more »
comments
print report bad tab
7 comments total. Showing first comments.
+2 reply
AndyVanHalen 40 Jan 02, 2007 11:44 AM

I think it actually goes like this:

e-----------------------------------------------------------------|
b-----------------------------------------------------------------|
g-----------------------------------------------------------------|
d-----------------------------------------------------------------|
a---------------3--5~---------------3--5--------------------------|
D---0-0--3h5h6----------0-0--3h5h6-------6-5----------------------|

0 reply
flipf 71 Jan 04, 2007 04:48 PM

No, I'll submit the intro, but I'm sure that the author's tab is wrong.

0 reply
flipf 71 Jan 04, 2007 04:57 PM

I mean the unregistered author, AndyVanHalen is pretty close!

guest
Wanna post a correction for this tab? Suggest correction