Oops, an error
Loading. Please wait.

Temptation Come My Way tab

version 1
version 1

Whole song

2,938 views 1 this week
10 commentsread comments
1 2 3 4 5
x 3
add to favorites
×
Save as Personal and add changes to this tab that will be seen only by you. Learn more ›
×
You can save this tab as Personal to edit and correct it or add notes. All changes will be seen only by you. Learn more »
launch autoscroll
font size
0
reset
how to read this tab
guitar tuner
edit
Autoscroll
slow
fast
+/-
esc
set tempo
stop
This should be all right. I don't have the solos figured out yet.
e|----------------------------------|
B|----------------------------------|
G|----------------------------------|
D|----------------------------------|
A|--------3-5~~~~--------3-5--------|
D|0-0-03h5-------0-0-03h5---6-5~~~~-|

Verse
e|---------------------------------|
B|---------------------------------|
G|---------------------------------|
D|---------------------------------|
A|0-0-3-0-5-0-0--0-3-0-6\5p3-0-3-5-|
D|0-0-3-0-5-0-0--0-3-0-6\5p3-0-3-5-|

e|----------------------------------|
B|----------------------------------|
G|----------------------------------|
D|----------------------------------|
A|0-0-3-0-5-0-0--0-3-0--------------| 2x
D|0-0-3-0-5-0-0--0-3-0-6\5/6\5/6\5--|

e|--------------------------|
B|--------------------------|
G|--------------------------|
D|--------------------------|
A|--------------------------| 4x
D|0-0-5\3~~-6\5~~-8\7~~3h5--|

e|--------------------------------------------|
B|--------------------------------------------|
G|--------------------------------------------|
D|--------------------------------------------|
A|--------------------------------------------|
D|6-5-3-0-3-5-6-5-3-0-3-5-6-5-3-0-3-5-6-5-3-0-|

e|----------------------------------------------|
B|----------------------------------------------|
G|----------------------------------------------|
D|----------------------------------------------| 2x
A|----------------------------------------------|
D|0-0-3h5p3p0-0-0--0-0-0-3h5p3-3h5h6p5p3p0h3h5--|

Endin
e|-
B|-
G|-
D|-
A|0
D|0

            
            
Suggest correction
Creating personal tab
Creating personal tab
You can edit any tab online and save it as your Personal.

You can edit, replace or remove any tab part or add personal notes – all changes will be seen only by you.

Personal tabs can be accessed anytime from any device, even offline.
Learn more »
Give kudos to tab author, rate the tab!
1 2 3 4 5
comments
print report bad tab
10 comments total. Showing first comments.
-1 reply
patent 10 Mar 02, 2007 08:43 AM

this is a good start. just put in guitar two and the solos and stuff, and youll prob have a 5.

-1 reply
black_roses_jmt 10 May 18, 2007 11:40 AM

good job and all, 2 things though, the into sounds off and the rest of the stuff in there would be nice, but still good job, 4 stars for now

-2 reply
lambslayer2766 31 Sep 03, 2007 02:41 PM

dude the beginning goes like this
e|------------------------------------------|
B|------------------------------------------|
G|------------------------------------------|
D|------------------------------------------|
A|-------------3-5~-------------3-5---------|
D|--0--0-3-5-6-------0--0-3-5-6-----6-5~----|

guest
You may want to rate the tab now too:
select rating
Wanna post a correction for this tab? Suggest correction