Oops, an error
Loading. Please wait.

Your Name Is Victory tab

585 views 9 this week
no commentswrite comment
1 2 3 4 5
3 more votes to show rating
add to favorites
×
Save as Personal and add changes to this tab that will be seen only by you. Learn more ›
×
You can save this tab as Personal to edit and correct it or add notes. All changes will be seen only by you. Learn more »
launch autoscroll
font size
0
reset
how to read this tab
guitar tuner
edit
Autoscroll
slow
fast
+/-
esc
set tempo
stop
Author
Difficulty
Song: Your Name Is Victory
Artist: The Showdown
Album: A Chorus Of Obliteration
Tabbed by Christian Abbott
Key: .= Palm Mute
     *= Pinch Harmonics
     ~= Hold Note
     b= Bend
    ub= Unbend
     t= Tremolo Pick
 ---->= Go really friggin' fast.
  ps  = Pick slide
   whd= Whammy Down- makes pitch go up
   whu= Whammy Up-makes pitch go down
The solo is the worst thing ever,
the notes are good but i dont think
the hammering is. But try it anyway.
It sounds alright with me.

Tuning: DADGBe, Drop D
  Guitar 1- unnamed
  Guitar 2- unnamed
  Guitar 3- Solo Guitar


Intro- Guitar 1
e ----------------------------------------x1--------------|
B --------------------------------------------------------|
G --------------------------------------------------------|
D -5-----5--6--3--8-5-----5-----5--6--3--8-5----5-3-1-0~--|
A -5-----5--6--3--8-5-----5-----5--6--3--8-5----5-3-1-0~--|
D -5-----5--6--3--8-5-----5-----5--6--3--8-5----5-3-1-0~--|

Intro- Guitar 2
e -----------------------------------------------------------|
B --not-sure-about-exact-counting,-you-get-the-point---------|
G ---->---->---->---->---->---->---->---->---->--->-ps-------|
D ----------------------------------------------------ps-----|
A ---->---->---->---->---->---->---->---->---->--->-----ps---|
D -55555555555555555555555555555555555555555555555--------ps-|
   ...............................................
e ------------------------------------------------------------|
B ------------------------------------------------------------|
G ------------------------------------------------------------|
D --------------------------------------------------5-3-1-0~--|
A ---->---->---->---->---->---->---->---->---->--->-5-3-1-0~--|
D -55555555555555555555555555555555555555555555555--5-3-1-0~--|
   ...............................................

Verse- Guitar 1
e -----------------------------------------------------------------|
B -----------------------------------------------------------------|
G -----------------------------------------------------------------|
D -5--------------5----5-7-7-8--------------8-8-8-8-1------3-------|
A -5--------------5----5-7-7-8--------------8-8-8-8-1------3-------|
D -555555555555555555555-7-7-8888888888888888-8-8-8-11111113333333-|

e ---------------------------------------------------------------------|
B ---------------------------------------------------------------------|
G ---------------------------------------------------------------------|
D -5------------------------5--------------5----5-7-7-8--------------8-|
A -5-------------6-9-7-6----5--------------5----5-7-7-8--------------8-|
D -5555555-6-8-9---------9--555555555555555555555-7-7-8888888888888888-|

e ------------------------------------------------|
B ------------------------------------------------|
G ------------------------------------------------|
D -8-8-8-1------3-------0----------------------6--|
A -8-8-8-1------3-------0--------------6-----6----|
D -8-8-8-11111113333333-0000000--6-8-9---8-9------|

Verse- Guitar 2
still not sure about counting, just play until next note.
e ---------------------------------------------------------------------|
B ---------------------------------------------------------------------|
G ---------------------------------------------------------------------|
D ---------------------------------------------------------------------|
A ---------------------------------------------------------------------|
D -5555555555555555555557777777788888888888888888888881111111111111111-

e ----------------------------------------------------|
B ----------------------------------------------------|
G ----------------------------------------------------|
D ----------------------------------------8-11-10-8---|
A ---------------------------------8-10-11----------5-|
D -33333333333333335555555555555555-------------------|
1s, not 11's
e ---------------------------------------------------------------------|
B ---------------------------------------------------------------------|
G ---------------------------------------------------------------------|
D ---------------------------------------------------------------------|
A ---------------------------------------------------------------------|
D -5555555555555555555557777777788888888888888888888881111111111111111-

e ------------------------------------------------------|
B ------------------------------------------------------|
G ----------------------------------------------------8-|
D ------------------------------------------8-------8---|
A ----------------------------------8-10-11---10-11-----|
D -33333333333333330000000000000000---------------------|

Pre-Chorus- Guitar 1

e ------------------------------------------------------------------|
B ------------------------------------------16----------14----------|
G ------------------13----------12-------------------------------13-|
D -0\13/5~----------------------------------------------------------|
A -0\13/5~----11-11----11-11-11----11-11-11----11-11-11----11-11----|
D -0\13/5~----------------------------------------------------------|
              .  .     .  .  .     .  .  .     .  .  .     .  .
e -----------------------------------------|
B ----------------16*b(18)-----------------|
G ----------12-----------------------------|
D -----------------------------------------|
A -11-11-11----11--------------------------|
D -----------------------------------------|
   .  .  .     .

Pre-Chorus- Guitar 2

e -----------------11-----9-----14-----12----11-----9-12*b(13)---|
B -------------9-9----999---999----999----99----999--------------|
G ---------------------------------------------------------------|
D -0\13/5~-------------------------------------------------------|
A -0\13/5~-------------------------------------------------------|
D -0\13/5~-------------------------------------------------------|
               . .    ...   ...    ...    ..    ... .

Chorus- Guitar 1

e -----------------------------|----------------11-11-11-11---|
B --------------------------x3-|------------------------------|
G -----------------------------|--------0---------------------|
D -5-3-5---5--1-1-1--3-3-3-----|-1-----1--3-333---------------|
A -5-3-5---5--1-1-1--3-3-3-----|-1-1-1----3-333---------------|
D -5-3-5-3-5--1-1-1--3-3-3-----|-1-1-1----3-333---------------|
         .
e -----------------------------|----------------------|
B --------------------------x3-|----------------------|
G -----------------------------|----------------------|
D -5-3-5---5--1-1-1--3-3-3-----|-1111111133333333-----|
A -5-3-5---5--1-1-1--3-3-3-----|-1111111133333333-----|
D -5-3-5-3-5--1-1-1--3-3-3-----|-1111111133333333-----|
         .                       ........ .......


Chorus- Guitar 2

e -----------------------------------------------|
B -----------------------------------------------|
G -----------------------------------8-6565------|
D -5-3-5---5--1-1-1--3-3-3--5-3-5---5------865---|
A -5-3-5---5--1-1-1--3-3-3--5-3-5---5------------|
D -5-3-5-3-5--1-1-1--3-3-3--5-3-5-3-5------------|
         .                        .

e -----------------------------|----------------11-11-11-11---|
B -----------------------------|------------------------------|
G -----------------------------|--------0---------------------|
D -5-3-5---5--1-1-1--3-3-3-----|-1-----1--3-333---------------|
A -5-3-5---5--1-1-1--3-3-3-----|-1-1-1----3-333---------------|
D -5-3-5-3-5--1-1-1--3-3-3-----|-1-1-1----3-333---------------|


e -----------------------------------------------|
B -----------------------------------------------|
G -----------------------------------8-6565------|
D -5-3-5---5--1-1-1--3-3-3--5-3-5---5------865---|
A -5-3-5---5--1-1-1--3-3-3--5-3-5---5------------|
D -5-3-5-3-5--1-1-1--3-3-3--5-3-5-3-5------------|
         .                        .

e ----------------------------7--9--11--11b(12)ub11--|
B --------------------------99-99-99--99-------------|
G ---------------------------------------------------|
D -5-3-5---5--1-1-1--3-3-3---------------------------|
A -5-3-5---5--1-1-1--3-3-3---------------------------|
D -5-3-5-3-5--1-1-1--3-3-3---------------------------|
         .

Post Chorus- Guitar 1+2
e -------------------------------------------|
B -------------------------------------------|
G -------------------------------------------|
D -5-3-5--then-there-is-a-pause-in-the-song--|
A -5-3-5-------------------------------------|
D -5-3-5-------------------------------------|


Verse- Guitar 1
e -----------------------------------------------------------------|
B -----------------------------------------------------------------|
G -----------------------------------------------------------------|
D -5--------------5----5-7-7-8--------------8-8-8-8-1------3-------|
A -5--------------5----5-7-7-8--------------8-8-8-8-1------3-------|
D -555555555555555555555-7-7-8888888888888888-8-8-8-11111113333333-|

e ---------------------------------------------------------------------|
B ---------------------------------------------------------------------|
G ---------------------------------------------------------------------|
D -5------------------------5--------------5----5-7-7-8--------------8-|
A -5-------------6-9-7-6----5--------------5----5-7-7-8--------------8-|
D -5555555-6-8-9---------9--555555555555555555555-7-7-8888888888888888-|

e ------------------------------------------------|
B ------------------------------------------------|
G ------------------------------------------------|
D -8-8-8-1------3-------0----------------------6--|
A -8-8-8-1------3-------0--------------6-----6----|
D -8-8-8-11111113333333-0000000--6-8-9---8-9------|

Verse- Guitar 2
still not sure about counting, just play until next note.
e ---------------------------------------------------------------------|
B ---------------------------------------------------------------------|
G ---------------------------------------------------------------------|
D ---------------------------------------------------------------------|
A ---------------------------------------------------------------------|
D -5555555555555555555557777777788888888888888888888881111111111111111-

e ----------------------------------------------------|
B ----------------------------------------------------|
G ----------------------------------------------------|
D ----------------------------------------8-11-10-8---|
A ---------------------------------8-10-11----------5-|
D -33333333333333335555555555555555-------------------|
1s, not 11's
e ---------------------------------------------------------------------|
B ---------------------------------------------------------------------|
G ---------------------------------------------------------------------|
D ---------------------------------------------------------------------|
A ---------------------------------------------------------------------|
D -5555555555555555555557777777788888888888888888888881111111111111111-

e ------------------------------------------------------|
B ------------------------------------------------------|
G ----------------------------------------------------8-|
D ------------------------------------------8-------8---|
A ----------------------------------8-10-11---10-11-----|
D -33333333333333330000000000000000---------------------|

Solo pt.1- Guitar 3

e -16-----16-----------16-----------19----[18----19----18----16----14-x2---|
B ---14h16--14h16p14h16--14h16p14h16--1414[--1414--1414--1414--1414--------|
G -------------------------------------------------------------------------|
D -------------------------------------------------------------------------|
A -------------------------------------------------------------------------|
D -------------------------------------------------------------------------|

e -19----18----16----14----16----18----14----12----16----14----16----14-|
B ---1414--1414--1414--1212--1212--1212--1212--1212--1212--1212--1212---|
G ----------------------------------------------------------------------|
D ----------------------------------------------------------------------|
A ----------------------------------------------------------------------|
D ----------------------------------------------------------------------|

e --------------------------------------------------------------------|
B -15*whu------o-w-c-h...------I think i massicred it (in a bad way)--|
G --------------------------------------------------------------------|
D --------------------------------------------------------------------|
A --------------------------------------------------------------------|
D --------------------------------------------------------------------|

Under-Solo pt.1- Guitar 1

e -----------------------------------------------------------------|
B -----------------------------------------------------------------|
G -----------------------------------------------------------------|
D -5--------------5----5-7-7-8--------------8-8-8-8-1------3-------|
A -5--------------5----5-7-7-8--------------8-8-8-8-1------3-------|
D -555555555555555555555-7-7-8888888888888888-8-8-8-11111113333333-|

e --------------------------|
B --------------------------|
G --------------------------|
D -5------------------------|
A -5-------------6-9-7-6----|
D -5555555-6-8-9---------9--|

Under-Solo pt.1- Guitar 2

e ---------------------------------------------------------------------|
B ---------------------------------------------------------------------|
G ---------------------------------------------------------------------|
D ---------------------------------------------------------------------|
A ---------------------------------------------------------------------|
D -5555555555555555555557777777788888888888888888888881111111111111111-

e ----------------------------------------------------|
B ----------------------------------------------------|
G ----------------------------------------------------|
D ----------------------------------------8-11-10-8---|
A ---------------------------------8-10-11----------5-|
D -33333333333333335555555555555555-------------------|

Solo pt.2

e ------------------------------------------------------------------|
B -12~-14-11~-11-12-11-9-7-0-9~--16-14-12----------14-12-11---------|
G ----------------------------------------15-13-11----------13-11-9-|
D ------------------------------------------------------------------|
A ------------------------------------------------------------------|
D ------------------------------------------------------------------|

e ----19-17-16-14-12-11-12-11-12p11h12p11--------|
B -17---------------------------------------16~--|
G -----------------------------------------------|
D -----------------------------------------------|
A -----------------------------------------------|
D -----------------------------------------------|

Under-Solo pt.2

e --------------------------------------------|
B --------------------------------------------|
G --------------------------------------------|
D -5--------------5----5-7-7-8--------------8-|
A -5--------------5----5-7-7-8--------------8-|
D -555555555555555555555-7-7-8888888888888888-|

e ------------------------------------------------|
B ------------------------------------------------|
G ------------------------------------------------|
D -8-8-8-1------3-------0----------------------6--|
A -8-8-8-1------3-------0--------------6-----6----|
D -8-8-8-11111113333333-0000000--6-8-9---8-9------|

After-Solo- Guitar 1

e -------------------------------------------------------------------|
B -12~-14-12---------------------------------------------------------|
G -------------------------------------------16---------14-----------|
D -------------------13----------12-------------------------------13-|
A -------------11-11----11-11-11----11-11-11----11-11-11----11-11----|
D -------------------------------------------------------------------|
                .  .     .  .  .     .  .  .     .  .  .     .  .

e -----------------------------------------|
B ----------------16*b(18)-----------------|
G ----------12-----------------------------|
D -----------------------------------------|
A -11-11-11----11--------------------------|
D -----------------------------------------|


 After-Solo- Guitar 2
e ----------------11-----9-----14-----12----11-----9-12*b(13)------|
B -------------99----999---999----999----99----999-----------------|
G -----------------------------------------------------------------|
D -----------------------------------------------------------------|
A -8~-10-6~--------------------------------------------------------|
D -----------------------------------------------------------------|
               ..    ...   ...    ...    ..    ... .


After-Solo- Guitar 3

e -------------------------------------------------------------|
B -figure-out-where-this-goes,-its-on-the-harmonic-------------|
G -------------------------------------------------------------|
D -1111111133333333--------------------------------------------|
A -1111111133333333--------------------------------------------|
D -1111111133333333--------------------------------------------|
   ................

Chorus- Guitar 1

e -----------------------------|----------------11-11-11-11---|
B --------------------------x3-|------------------------------|
G -----------------------------|--------0---------------------|
D -5-3-5---5--1-1-1--3-3-3-----|-1-----1--3-333---------------|
A -5-3-5---5--1-1-1--3-3-3-----|-1-1-1----3-333---------------|
D -5-3-5-3-5--1-1-1--3-3-3-----|-1-1-1----3-333---------------|
         .
e -----------------------------|----------------------|
B --------------------------x3-|----------------------|
G -----------------------------|----------------------|
D -5-3-5---5--1-1-1--3-3-3-----|-1111111133333333-----|
A -5-3-5---5--1-1-1--3-3-3-----|-1111111133333333-----|
D -5-3-5-3-5--1-1-1--3-3-3-----|-1111111133333333-----|
         .                       ........ .......


Chorus- Guitar 2

e -----------------------------------------------|
B -----------------------------------------------|
G -----------------------------------8-6565------|
D -5-3-5---5--1-1-1--3-3-3--5-3-5---5------865---|
A -5-3-5---5--1-1-1--3-3-3--5-3-5---5------------|
D -5-3-5-3-5--1-1-1--3-3-3--5-3-5-3-5------------|
         .                        .

e -----------------------------|----------------11-11-11-11---|
B -----------------------------|------------------------------|
G -----------------------------|--------0---------------------|
D -5-3-5---5--1-1-1--3-3-3-----|-1-----1--3-333---------------|
A -5-3-5---5--1-1-1--3-3-3-----|-1-1-1----3-333---------------|
D -5-3-5-3-5--1-1-1--3-3-3-----|-1-1-1----3-333---------------|


e -----------------------------------------------|
B -----------------------------------------------|
G -----------------------------------8-6565------|
D -5-3-5---5--1-1-1--3-3-3--5-3-5---5------865---|
A -5-3-5---5--1-1-1--3-3-3--5-3-5---5------------|
D -5-3-5-3-5--1-1-1--3-3-3--5-3-5-3-5------------|
         .                        .

e ----------------------------7--9--11--11b(12)ub11--|
B --------------------------99-99-99--99-------------|
G ---------------------------------------------------|
D -5-3-5---5--1-1-1--3-3-3---------------------------|
A -5-3-5---5--1-1-1--3-3-3---------------------------|
D -5-3-5-3-5--1-1-1--3-3-3---------------------------|
         .

Then theres the Modified Chorus

Guitar 1
e -------------------|-----------------------|
B -------------------|-----------------------|
G -------------------|-----------------------|
D -5-3-5-------------|-1111111133333333------|
A -5-3-5-------------|-1111111133333333------|
D -5-3-5-------------|-1111111133333333------|
                       ................

Guitar 2

e --------------------|-7--9--11--11b(12)ub11-----|
B --------------------|--99-99-99--99-------------|
G --------------------|---------------------------|
D -5-3-5--------------|---------------------------|
A -5-3-5--------------|---------------------------|
D -5-3-5--------------|---------------------------|

Chorus- Guitar 1

e -----------------------------|----------------11-11-11-11---|
B --------------------------x3-|------------------------------|
G -----------------------------|--------0---------------------|
D -5-3-5---5--1-1-1--3-3-3-----|-1-----1--3-333---------------|
A -5-3-5---5--1-1-1--3-3-3-----|-1-1-1----3-333---------------|
D -5-3-5-3-5--1-1-1--3-3-3-----|-1-1-1----3-333---------------|
         .
e -----------------------------|----------------------|
B --------------------------x3-|----------------------|
G -----------------------------|----------------------|
D -5-3-5---5--1-1-1--3-3-3-----|-1111111133333333-----|
A -5-3-5---5--1-1-1--3-3-3-----|-1111111133333333-----|
D -5-3-5-3-5--1-1-1--3-3-3-----|-1111111133333333-----|
         .                       ........ .......


Chorus- Guitar 2

e -----------------------------------------------|
B -----------------------------------------------|
G -----------------------------------8-6565------|
D -5-3-5---5--1-1-1--3-3-3--5-3-5---5------865---|
A -5-3-5---5--1-1-1--3-3-3--5-3-5---5------------|
D -5-3-5-3-5--1-1-1--3-3-3--5-3-5-3-5------------|
         .                        .

e -----------------------------|----------------11-11-11-11---|
B -----------------------------|------------------------------|
G -----------------------------|--------0---------------------|
D -5-3-5---5--1-1-1--3-3-3-----|-1-----1--3-333---------------|
A -5-3-5---5--1-1-1--3-3-3-----|-1-1-1----3-333---------------|
D -5-3-5-3-5--1-1-1--3-3-3-----|-1-1-1----3-333---------------|


e -----------------------------------------------|
B -----------------------------------------------|
G -----------------------------------8-6565------|
D -5-3-5---5--1-1-1--3-3-3--5-3-5---5------865---|
A -5-3-5---5--1-1-1--3-3-3--5-3-5---5------------|
D -5-3-5-3-5--1-1-1--3-3-3--5-3-5-3-5------------|
         .                        .

e ----------------------------7--9--11--11b(12)ub11--|
B --------------------------99-99-99--99-------------|
G ---------------------------------------------------|
D -5-3-5---5--1-1-1--3-3-3---------------------------|
A -5-3-5---5--1-1-1--3-3-3---------------------------|
D -5-3-5-3-5--1-1-1--3-3-3---------------------------|
         .


Aight, thats it. Someone might want to consider re-making the
Solo pt.1. I hope you guys enjoy it, there will be more on their
way

Email: Guitarskategood@hotmail.com
AIM: dumbone247
Suggest correction
Creating personal tab
Creating personal tab
You can edit any tab online and save it as your Personal.

You can edit, replace or remove any tab part or add personal notes – all changes will be seen only by you.

Personal tabs can be accessed anytime from any device, even offline.
Learn more »
Give kudos to tab author, rate the tab!
1 2 3 4 5
comments
print report bad tab
guest
You may want to rate the tab now too:
select rating
Wanna post a correction for this tab? Suggest correction