Oops, an error
Loading. Please wait.

Broadzilla tab

37 views 1 this week
no commentswrite comment
1 2 3 4 5
3 more votes to show rating
add to favorites
×
Save as Personal and add changes to this tab that will be seen only by you. Learn more ›
×
You can save this tab as Personal to edit and correct it or add notes. All changes will be seen only by you. Learn more »
launch autoscroll
font size
0
reset
how to read this tab
guitar tuner
edit
Autoscroll
slow
fast
+/-
esc
set tempo
stop
Author
Difficulty
Tabbed by J

[Intro]

Lead Guitar
e|----------------9-9-11-11-10-10-9-9-6-6-|
B|----10-10-11-11-------------------------|
G|8-8-------------------------------------|
D|----------------------------------------|
A|----------------------------------------|
E|----------------------------------------|

Rhythm Guitar 2 
e|x-x-x-x-x-x-x-x-|
B|x-x-x-x-x-x-x-x-|
G|x-x-x-x-x-x-x-x-|
D|x-x-x-x-x-x-x-x-|
A|x-x-x-x-x-x-x-x-|
E|x-x-x-x-x-x-x-x-|


[Verse]

Verse 1
I burnt my hand again
I burnt both hands that night
Now what I am supposed to do
When I see over you

Verse 2
I burnt my penis again
Just sat right there in front of this flame
They said you will be so tired
Just sat right there and burned it down


Rhythm Guitar 1 (Distorted - down up down up down up down up strum)
e|6-6-6-6--x-x-x-x--x-x-x-x--x-x-x-x-|
B|7-7-7-7--x-x-x-x--x-x-x-x--x-x-x-x-|
G|8-8-8-8--8-8-8-8--7-7-7-7--8-8-8-8-|
D|8-8-8-8--9-9-9-9--8-8-8-8--9-9-9-9-|
A|6-6-6-6--9-9-9-9--8-8-8-8--9-9-9-9-|
E|---------7-7-7-7--6-6-6-6--7-7-7-7-|

Rhythm Guitar 2 (Cleaner down down up down up down up strum)
e|6-6-6-6--7-7-7-7--6-6-6-6--7-7-7-7-|
B|7-7-7-7--7-7-7-7--6-6-6-6--7-7-7-7-|
G|8-8-8-8--8-8-8-8--7-7-7-7--8-8-8-8-|
D|8-8-8-8--9-9-9-9--8-8-8-8--9-9-9-9-|
A|6-6-6-6--9-9-9-9--8-8-8-8--9-9-9-9-|
E|---------7-7-7-7--6-6-6-6--7-7-7-7-|


[Chorus]

Lead Guitar
e|----------------9-9-11-11-10-10-9-9-6-6-|
B|----10-10-11-11-------------------------|
G|8-8-------------------------------------|
D|----------------------------------------|
A|----------------------------------------|
E|----------------------------------------|

Rhythm Guitar 1 (Distorted - down up down up down up down up strum)
e|6-6-6-6--x-x-x-x--x-x-x-x--x-x-x-x-|
B|7-7-7-7--x-x-x-x--x-x-x-x--x-x-x-x-|
G|8-8-8-8--8-8-8-8--3-3-3-3--7-7-7-7-|
D|8-8-8-8--9-9-9-9--4-4-4-4--8-8-8-8-|
A|6-6-6-6--9-9-9-9--4-4-4-4--8-8-8-8-|
E|---------7-7-7-7--2-2-2-2--6-6-6-6-|

Rhythm Guitar 2 (Cleaner down down up down up down up strum)
e|6-6-6-6--7-7-7-7--2-2-2-2--6-6-6-6-|
B|7-7-7-7--7-7-7-7--2-2-2-2--6-6-6-6-|
G|8-8-8-8--8-8-8-8--3-3-3-3--7-7-7-7-|
D|8-8-8-8--9-9-9-9--4-4-4-4--8-8-8-8-|
A|6-6-6-6--9-9-9-9--4-4-4-4--8-8-8-8-|
E|---------7-7-7-7--2-2-2-2--6-6-6-6-|


[Outro]

Lead (Tremolo)
e|---------------------------------------------------------------------------------------------------|
B|---------------------------------------------------------------------------------------------------|
G|---------------------------------------------------------------------------------------------------|
D|---------------------------------------------------------------------------------------------------|
A|-------------------------------------6-6-6-6-6-6-6-6-----------------------------------------------|
E|22222222-66666666-222222222-666666666---------------6-6-6-6-6-6-6-6-2-2-2-2-2-2-2-2-6-6-6-6-6-6-6-6|


Rhythm comes in after lead finishes
 
Rhythm Guitar 1 (Distorted same aggressive down up down up)
e|x-x-x-x-x-x-x-x--x-x-x-x-x-x-x-x--x-x-x-x-x-x-x-x--x-x-x-x-x-x-x-x-|
B|x-x-x-x-x-x-x-x--x-x-x-x-x-x-x-x--x-x-x-x-x-x-x-x--x-x-x-x-x-x-x-x-|
G|3-3-3-3-3-3-3-3--7-7-7-7-7-7-7-7--3-3-3-3-3-3-3-3--7-7-7-7-7-7-7-7-|
D|4-4-4-4-4-4-4-4--8-8-8-8-8-8-8-8--4-4-4-4-4-4-4-4--8-8-8-8-8-8-8-8-|
A|4-4-4-4-4-2-4-4--8-8-8-8-8-8-8-8--4-4-4-4-4-4-4-4--8-8-8-8-8-8-8-8-|
E|2-2-2-2-2-2-2-2--6-6-6-6-6-6-6-6--2-2-2-2-2-2-2-2--6-6-6-6-6-6-6-6-|

e|6-6-6-6-6-6-6-6--x-x-x-x-x-x-x-x--x-x-x-x-x-x-x-x--x-x-x-x-x-x-x-x-|
B|7-7-7-7-7-7-7-7--x-x-x-x-x-x-x-x--x-x-x-x-x-x-x-x--x-x-x-x-x-x-x-x-|
G|8-8-8-8-8-8-8-8--7-7-7-7-7-7-7-7--3-3-3-3-3-3-3-3--7-7-7-7-7-7-7-7-|
D|8-8-8-8-8-8-8-8--8-8-8-8-8-8-8-8--4-4-4-4-4-4-4-4--8-8-8-8-8-8-8-8-|
A|6-6-6-6-6-6-6-6--8-8-8-8-8-8-8-8--4-4-4-4-4-4-4-4--8-8-8-8-8-8-8-8-|
E|-----------------6-6-6-6-6-6-6-6--2-2-2-2-2-2-2-2--6-6-6-6-6-6-6-6-|

Rhythm Guitar 2 (Still cleaner but now follows strumming pattern of Rhythm 1)
e|2-2-2-2-2-2-2-2--6-6-6-6-6-6-6-6--2-2-2-2-2-2-2-2--6-6-6-6-6-6-6-6-|
B|2-2-2-2-2-2-2-2--6-6-6-6-6-6-6-6--2-2-2-2-2-2-2-2--6-6-6-6-6-6-6-6-|
G|3-3-3-3-3-3-3-3--7-7-7-7-7-7-7-7--3-3-3-3-3-3-3-3--7-7-7-7-7-7-7-7-|
D|4-4-4-4-4-4-4-4--8-8-8-8-8-8-8-8--4-4-4-4-4-4-4-4--8-8-8-8-8-8-8-8-|
A|4-4-4-4-4-2-4-4--8-8-8-8-8-8-8-8--4-4-4-4-4-4-4-4--8-8-8-8-8-8-8-8-|
E|2-2-2-2-2-2-2-2--6-6-6-6-6-6-6-6--2-2-2-2-2-2-2-2--6-6-6-6-6-6-6-6-|

e|6-6-6-6-6-6-6-6--6-6-6-6-6-6-6-6--2-2-2-2-2-2-2-2--6-6-6-6-6-6-6-6-|
B|7-7-7-7-7-7-7-7--6-6-6-6-6-6-6-6--2-2-2-2-2-2-2-2--6-6-6-6-6-6-6-6-|
G|8-8-8-8-8-8-8-8--7-7-7-7-7-7-7-7--3-3-3-3-3-3-3-3--7-7-7-7-7-7-7-7-|
D|8-8-8-8-8-8-8-8--8-8-8-8-8-8-8-8--4-4-4-4-4-4-4-4--8-8-8-8-8-8-8-8-|
A|6-6-6-6-6-6-6-6--8-8-8-8-8-8-8-8--4-4-4-4-4-4-4-4--8-8-8-8-8-8-8-8-|
E|-----------------6-6-6-6-6-6-6-6--2-2-2-2-2-2-2-2--6-6-6-6-6-6-6-6-|



************************************

| x  Dead note

************************************
Suggest correction
Creating personal tab
Creating personal tab
You can edit any tab online and save it as your Personal.

You can edit, replace or remove any tab part or add personal notes – all changes will be seen only by you.

Personal tabs can be accessed anytime from any device, even offline.
Learn more »
Give kudos to tab author, rate the tab!
1 2 3 4 5
comments
print report bad tab
guest
You may want to rate the tab now too:
select rating
Wanna post a correction for this tab? Suggest correction