Oops, an error
Loading. Please wait.

Another Fool tab

7 views 1 this week
no commentswrite comment
1 2 3 4 5
3 more votes to show rating
add to favorites
×
Save as Personal and add changes to this tab that will be seen only by you. Learn more ›
×
You can save this tab as Personal to edit and correct it or add notes. All changes will be seen only by you. Learn more »
launch autoscroll
font size
0
reset
how to read this tab
guitar tuner
edit
Autoscroll
slow
fast
+/-
esc
set tempo
stop
[Intro]

e|---------0---------------0-----------0-----------0-----------0-----------0----------|
B|-1---3-------3-------1-----------1-----------------------1--------------------------|
G|-----------------0-----------0-----------0---3-------3-----------3---2--------------|
D|------------------------------------------------------------------------------------|
A|------------------------------------------------------------------------------------|
E|------------------------------------------------------------------------------------|
                            there's a hole in the road              there's a cone on the hole
e|---------0-----------0-----------0-----------0-----------0-----------0-----------0---|
B|-----1-----------1-----------1-----------1-----------1-----------------------1-------|
G|-2-----------2-----------2-----------0-----------0-----------0---3-------3-----------|
D|-------------------------------------------------------------------------------------|
A|-------------------------------------------------------------------------------------|
E|-------------------------------------------------------------------------------------|
                                        there's a flag changing hands
e|---------0-----------0-----------0-----------0-----------0-----------0--------------|
B|-----------------1-----------1-----------1-----------1-----------1------------------|
G|-3---2-------2-----------2-----------2-----------0-----------0----------------------|
D|------------------------------------------------------------------------------------|
A|------------------------------------------------------------------------------------|
E|------------------------------------------------------------------------------------|
           and a man with no master plans
e|---------0-----------0-----------0-----------0-----------3-----------3---------------|
B|-----------------1-----------------------1-----------3-----------3-------------------|
G|-0---3-------3-----------3---2-------2-----------0-----------0-----------------------|
D|-------------------------------------------------------------------------------------|
A|-------------------------------------------------------------------------------------|
E|-------------------------------------------------------------------------------------|
                            maaaaaaybe there's a place where i'm just
e|---------3-----------3-----------0-----------0-----------0-----------0--------------|
B|-----3-----------3-----------1-----------1-----------------------1------------------|
G|-0-----------0-----------0-----------0-----------0---3-------3----------------------|
D|------------------------------------------------------------------------------------|
A|------------------------------------------------------------------------------------|
E|------------------------------------------------------------------------------------|
     another fool                                       maybe i'm a
e|---------0-----------0-----------1-----------1-----------0-----------0--------------|
B|-----------------1-----------1-----------1-----------1-----------1------------------|
G|-3---2-------2-----------0-----------0-----------0-----------0----------------------|
D|------------------------------------------------------------------------------------|
A|------------------------------------------------------------------------------------|
E|------------------------------------------------------------------------------------|
      lot like you
e|---------3-----------3-----------0-----------0-----------0-----------0--------------|
B|-----3-----------3-----------1-----------1-----------------------1------------------|
G|-0-----------0-----------0-----------0-----------0---3-------3----------------------|
D|------------------------------------------------------------------------------------|
A|------------------------------------------------------------------------------------|
E|------------------------------------------------------------------------------------|
                                                      etc.....
e|---------0-----------0-----------0-----------0------------------------------------|
B|-----------------1-----------1-----------1----------------------------------------|
G|-3---2-------2-----------2-----------2--------------------------------------------|
D|----------------------------------------------------------------------------------|
A|----------------------------------------------------------------------------------|
E|----------------------------------------------------------------------------------|



************************************

| lot like you 
| maaaaaaybe there's a place where i'm just 
| nd a man with no master plans 
| nother fool                                       maybe i'm a 
| tc..... 
| there's a flag changing hands 
| there's a hole in the road              there's a cone on the hole 

************************************

            
            
Suggest correction
Creating personal tab
Creating personal tab
You can edit any tab online and save it as your Personal.

You can edit, replace or remove any tab part or add personal notes – all changes will be seen only by you.

Personal tabs can be accessed anytime from any device, even offline.
Learn more »
Give kudos to tab author, rate the tab!
1 2 3 4 5
comments
print report bad tab
guest
You may want to rate the tab now too:
select rating
Wanna post a correction for this tab? Suggest correction