Oops, an error
Loading. Please wait.

Alice tab

version 2
version 2

Whole song

  • Datailed tab with divisions and menotrome friendly.

Interactive

106 views 1 this week
no commentswrite comment
1 2 3 4 5
2 more votes to show rating
add to favorites
×
Save as Personal and add changes to this tab that will be seen only by you. Learn more ›
×
You can save this tab as Personal to edit and correct it or add notes. All changes will be seen only by you. Learn more »
launch autoscroll
font size
0
reset
how to read this tab
guitar tuner
backing track
0:00
0:00
edit
Autoscroll
slow
fast
+/-
esc
set tempo
stop
Author
Difficulty
About this tab version
Datailed tab with divisions and menotrome friendly. Was this info helpful? Yes No
+/- 140 bpm, drum machine (look for a Boss DR55 sample pack and have fun!) and Mötörhead feelings.
guitar with a slight overdrive and a cool delay

[Intro]
  1   2   3   4    1   2   3   4    1   2   3   4    1   2   3   4    
e|3-----2-----0---|--0-0---0-0-----|3-----2-----0---|--0-0---0-0-----|
B|--0-0---0-0---0-|3-----3-----2-0-|--0-0---0-0---0-|3-----3-----2-0-|
G|----------------|----------------|----------------|----------------|
D|----------------|----------------|----------------|----------------|
A|----------------|----------------|----------------|----------------|
E|----------------|----------------|----------------|----------------|

  1   2   3   4    1   2   3   4    1   2   3   4    1   2   3   4    
e|3-----2-----0---|--0-0---0-0-----|3-----2-----0---|--0-0---0-0-----|
B|--0-0---0-0---0-|3-----3-----2-0-|--0-0---0-0---0-|3-----3-----2-0-|
G|----------------|----------------|----------------|----------------|
D|----------------|----------------|----------------|----------------|
A|----------------|----------------|----------------|----------------|
E|----------------|----------------|----------------|----------------|

  1   2   3   4    1   2   3   4    1   2   3   4    1   2   3   4    
e|3-----2-----0---|----------------|3-----2-----0---|----------------|
B|--0-0---0-0---0-|3-0-0-2-0-0-3-0-|--0-0---0-0---0-|3-0-0-2-0-0-3-0-|
G|----------------|----------------|----------------|----------------|
D|----------------|----------------|----------------|----------------|
A|----------------|----------------|----------------|----------------|
E|----------------|----------------|----------------|----------------|

  1   2   3   4    1   2   3   4    1   2   3   4    1   2   3   4    
e|3-----2-----0---|----------------|3-----2-----0---|----------------|
B|--0-0---0-0---0-|3-0-0-2-0-0-3-0-|--0-0---0-0---0-|3-0-0-2-0-0-3-0-|
G|----------------|----------------|----------------|----------------|
D|----------------|----------------|----------------|----------------|
A|----------------|----------------|----------------|----------------|
E|----------------|----------------|----------------|----------------|

Alice pressed against the wall      So she can see the door
  1   2   3   4    1   2   3   4    1   2   3   4    1   2   3   4    
e|3-----2-----0---|----------------|3-----2-----0---|----------------|
B|--0-0---0-0---0-|3-0-0-2-0-0-3-0-|--0-0---0-0---0-|3-0-0-2-0-0-3-0-|
G|----------------|----------------|----------------|----------------|
D|----------------|----------------|----------------|----------------|
A|----------------|----------------|----------------|----------------|
E|----------------|----------------|----------------|----------------|

In case the laughing strangers      Crush the petals on the floor
crawl and
  1   2   3   4    1   2   3   4    1   2   3   4    1   2   3   4    
e|3-----2-----0---|----------------|3-----2-----0---|----------------|
B|--0-0---0-0---0-|3-0-0-2-0-0-3-0-|--0-0---0-0---0-|3-0-0-2-0-0-3-0-|
G|----------------|----------------|----------------|----------------|
D|----------------|----------------|----------------|----------------|
A|----------------|----------------|----------------|----------------|
E|----------------|----------------|----------------|----------------|

Alice in her party dress            She thanks you kindly
                                    So serene
  1   2   3   4    1   2   3   4    1   2   3   4    1   2   3   4    
e|8-----7-----5---|----------------|8-----7-----5---|----------------|
B|--5-5---5-5---5-|8-5-5-7-5-5-8-5-|--5-5---5-5---5-|8-5-5-7-5-5-8-5-|
G|----------------|----------------|----------------|----------------|
D|----------------|----------------|----------------|----------------|
A|----------------|----------------|----------------|----------------|
E|----------------|----------------|----------------|----------------|

She needs you like                  To tell her that 
she needs her tranqs                the world is clean
  1   2   3   4    1   2   3   4    1   2   3   4    1   2   3   4    
e|3-----2-----0---|----------------|3-----2-----0---|----------------|
B|--0-0---0-0---0-|3-0-0-2-0-0-3-0-|--0-0---0-0---0-|3-0-0-2-0-0-3-0-|
G|----------------|----------------|----------------|----------------|
D|----------------|----------------|----------------|----------------|
A|----------------|----------------|----------------|----------------|
E|----------------|----------------|----------------|----------------|

To promise her a definition         Tell her where the rain will fall
  1   2   3   4    1   2   3   4    1   2   3   4    1   2   3   4    
e|----------------|----------------|----------------|----------------|
B|----------------|----------------|----------------|----------------|
G|------4-----4---|-4------4---2---|------4-----4---|-4------4---2---|
D|2---------------|----------0-----|2---------------|----------0-----|
A|----------------|----------------|----------------|----------------|
E|----------------|----------------|----------------|----------------|

Tell her where                      And tell her she can have it all
the sun shines bright               Today
                                    Today
  1   2   3   4    1   2   3   4    1   2   3   4    1   2   3   4    
e|3-----2-----0---|----------------|3-----2-----0---|----------------|
B|--0-0---0-0---0-|3-0-0-2-0-0-3-0-|--0-0---0-0---0-|3-0-0-2-0-0-3-0-|
G|----------------|----------------|----------------|----------------|
D|----------------|----------------|----------------|----------------|
A|----------------|----------------|----------------|----------------|
E|----------------|----------------|----------------|----------------|

Pass the crystal spread the tarot   In illusion comfort lies
  1   2   3   4    1   2   3   4    1   2   3   4    1   2   3   4    
e|3-----2-----0---|----------------|3-----2-----0---|----------------|
B|--0-0---0-0---0-|3-0-0-2-0-0-3-0-|--0-0---0-0---0-|3-0-0-2-0-0-3-0-|
G|----------------|----------------|----------------|----------------|
D|----------------|----------------|----------------|----------------|
A|----------------|----------------|----------------|----------------|
E|----------------|----------------|----------------|----------------|

The safest way the                  No confusion no surprise
straight and narrow
  1   2   3   4    1   2   3   4    1   2   3   4    1   2   3   4    
e|3-----2-----0---|----------------|3-----2-----0---|----------------|
B|--0-0---0-0---0-|3-0-0-2-0-0-3-0-|--0-0---0-0---0-|3-0-0-2-0-0-3-0-|
G|----------------|----------------|----------------|----------------|
D|----------------|----------------|----------------|----------------|
A|----------------|----------------|----------------|----------------|
E|----------------|----------------|----------------|----------------|

Alice in her party dressed to kill  She the thanks you turns away
  1   2   3   4    1   2   3   4    1   2   3   4    1   2   3   4    
e|8-----7-----5---|----------------|8-----7-----5---|----------------|
B|--5-5---5-5---5-|8-5-5-7-5-5-8-5-|--5-5---5-5---5-|8-5-5-7-5-5-8-5-|
G|----------------|----------------|----------------|----------------|
D|----------------|----------------|----------------|----------------|
A|----------------|----------------|----------------|----------------|
E|----------------|----------------|----------------|----------------|

She needs you like                  To tell her that 
she needs needs her pills           the world's okay
  1   2   3   4    1   2   3   4    1   2   3   4    1   2   3   4    
e|3-----2-----0---|----------------|3-----2-----0---|----------------|
B|--0-0---0-0---0-|3-0-0-2-0-0-3-0-|--0-0---0-0---0-|3-0-0-2-0-0-3-0-|
G|----------------|----------------|----------------|----------------|
D|----------------|----------------|----------------|----------------|
A|----------------|----------------|----------------|----------------|
E|----------------|----------------|----------------|----------------|

To promise her a definition         Tell her where the rain will fall
  1   2   3   4    1   2   3   4    1   2   3   4    1   2   3   4    
e|----------------|----------------|----------------|----------------|
B|----------------|----------------|----------------|----------------|
G|------4-----4---|-4------4---2---|------4-----4---|-4------4---2---|
D|2---------------|----------0-----|2---------------|----------0-----|
A|----------------|----------------|----------------|----------------|
E|----------------|----------------|----------------|----------------|

Tell her where the                  And tell her she can have it all
sun shines bright
  1   2   3   4    1   2   3   4    1   2   3   4    1   2   3   4    
e|3-----2-----0---|----------------|3-----2-----0---|----------------|
B|--0-0---0-0---0-|3-0-0-2-0-0-3-0-|--0-0---0-0---0-|3-0-0-2-0-0-3-0-|
G|----------------|----------------|----------------|----------------|
D|----------------|----------------|----------------|----------------|
A|----------------|----------------|----------------|----------------|
E|----------------|----------------|----------------|----------------|

Today                               Today
  1   2   3   4    1   2   3   4    1   2   3   4    1   2   3   4    
e|3-----2-----0---|----------------|3-----2-----0---|----------------|
B|--0-0---0-0---0-|3-0-0-2-0-0-3-0-|--0-0---0-0---0-|3-0-0-2-0-0-3-0-|
G|----------------|----------------|----------------|----------------|
D|----------------|----------------|----------------|----------------|
A|----------------|----------------|----------------|----------------|
E|----------------|----------------|----------------|----------------|

Alice                               Don't give it way
  1   2   3   4    1   2   3   4    1   2   3   4    1   2   3   4    
e|----------------|----------------|----------------|----------------|
B|----------------|----------------|----------------|----------------|
G|------4-----4---|-4------4---2---|------4-----4---|-4------4---2---|
D|2---------------|----------0-----|2---------------|----------0-----|
A|----------------|----------------|----------------|----------------|
E|----------------|----------------|----------------|----------------|

            
            
Suggest correction
Creating personal tab
Creating personal tab
You can edit any tab online and save it as your Personal.

You can edit, replace or remove any tab part or add personal notes – all changes will be seen only by you.

Personal tabs can be accessed anytime from any device, even offline.
Learn more »
Give kudos to tab author, rate the tab!
1 2 3 4 5
comments
print report bad tab
guest
You may want to rate the tab now too:
select rating
Wanna post a correction for this tab? Suggest correction