Oops, an error
Loading. Please wait.

Black Planet tab

version 2
version 2

Whole song

Interactive

373 views 3 this week
no commentswrite comment
1 2 3 4 5
3 more votes to show rating
add to favorites
×
Save as Personal and add changes to this tab that will be seen only by you. Learn more ›
×
You can save this tab as Personal to edit and correct it or add notes. All changes will be seen only by you. Learn more »
launch autoscroll
font size
0
reset
how to read this tab
guitar tuner
backing track
0:00
0:00
edit
Autoscroll
slow
fast
+/-
esc
set tempo
stop
Author
-------------------------------------------------------------------------------
                          Black Planet - Sister of Mercy
-------------------------------------------------------------------------------

Tabbed by:   MayaLT

Tuning: Standard


(Chorus)
e|-------5-------------------------------------------------------------------|
B|---------------5-------6-------5-------------------------------------------|
G|---------------------------------------7---5---4---------------------------| Repeat
D|---7-------7-------7-------7-------7---------------------------------------|
A|---------------------------------------------------------------------------|
E|---------------------------------------------------------------------------|

(Verse)
e|---------------------------------------------------------------------------|
B|---0-h-1---1---0-h-1---1---1-h-3---3---3---5---3---1-----------------------|
G|---------------------------------------------------------------------------| Repeat X2
D|---------------------------------------------------------------------------|
A|---------------------------------------------------------------------------|
E|---------------------------------------------------------------------------|

(Verse)
e|---------------------------------------------3---1---0---------------------|
B|---0-h-1---1---0-h-1---1---1-h-3---3---(3)---------------------------------|
G|---------------------------------------------------------------------------| Repeat
D|---------------------------------------------------------------------------|
A|---------------------------------------------------------------------------|
E|---------------------------------------------------------------------------|

| h   hammer-on



Lyrics:

(In the western sky)
(My kingdom come)

So still, so dark all over Europe
And I ride down the highway, 101
By the side of the ocean, headed for sunset
For the kingdom come
For the

Chorus

Black
Black planet
Black
Black world
[repeat]

Run around in the radiation
Run around in the acid rain, on a
Black, black planet
Black planet hanging over the highway
Out of my mind's eye, out of memory
Black world, out of my mind

So still, so dark all over Europe
And the rainbow rises here
In the western sky the kill to show for
At the end of the great white pier I see a

Chorus

Run around in the radiation
Tune in, turn on, burn out in a acid rain, on a..

Chorus[repeat to fade]




That's all! Enjoy!

            
            
Suggest correction
Creating personal tab
Creating personal tab
You can edit any tab online and save it as your Personal.

You can edit, replace or remove any tab part or add personal notes – all changes will be seen only by you.

Personal tabs can be accessed anytime from any device, even offline.
Learn more »
Give kudos to tab author, rate the tab!
1 2 3 4 5
comments
print report bad tab
guest
You may want to rate the tab now too:
select rating
Wanna post a correction for this tab? Suggest correction