Oops, an error
Loading. Please wait.

Temple Of Love tab

version 1
version 1

Whole song

Interactive

12,265 views 27 this week
no commentswrite comment
1 2 3 4 5
x 10
add to favorites
×
Save as Personal and add changes to this tab that will be seen only by you. Learn more ›
×
You can save this tab as Personal to edit and correct it or add notes. All changes will be seen only by you. Learn more »
launch autoscroll
font size
0
reset
how to read this tab
guitar tuner
backing track
0:00
0:00
edit
Autoscroll
slow
fast
+/-
esc
set tempo
stop
Author
Unregistered
Comments
~~~~~~~~
This is a variation on the tab submitted by John Mc Donagh (attached
below).   It's basically the same musically, but played as with
barre chords rather than open; I first worked it out with barres, and also
find it easier in this position.

    E                D                Am
e||----------------|-----------------|--------------------------------------|
B||----------------|-----------------|--------------------------------------|
G||---------9-9----|---------7-7-----|--------------------------------------|
D||-----9-9-----9-9|-----7-7-----7-7-|--------7-7--9-9-10-10-9-9-7-7--------|
A||-7-7------------|-5-5-------------|----7-7------------------------10-10--|
E||----------------|-----------------|5-5-----------------------------------|

    E                D                Am
e||----------------|-----------------|--------------------------------------|
B||----------------|-----------------|--------------------------------------|
G||---------9-9----|---------7-7-----|--------------------------------------|
D||-----9-9-----9-9|-----7-7-----7-7-|--------7-7--9-9-10-10-9-9-7-7-9-9----|
A||-7-7------------|-5-5-------------|----7-7-------------------------------|
E||----------------|-----------------|5-5-----------------------------------|

            
            
Suggest correction
Creating personal tab
Creating personal tab
You can edit any tab online and save it as your Personal.

You can edit, replace or remove any tab part or add personal notes – all changes will be seen only by you.

Personal tabs can be accessed anytime from any device, even offline.
Learn more »
comments
print report bad tab
guest
Wanna post a correction for this tab? Suggest correction