Oops, an error
Loading. Please wait.

Masquerade Tab

28 views 1 this week
no commentswrite comment
1 2 3 4 5
3 more votes to show rating
add to favorites
launch autoscroll
font size
0
reset
how to read this tab
guitar tuner
Autoscroll
slow
fast
+/-
esc
set tempo
stop
Help us to improve Ultimate-Guitar.com Take our survey!
×
Author
About this tab version
Full tab, should be accurate to the original, different chords to the chords submitted. Was this info helpful? Yes No
Intro/riff between verses

e|--------------------5-3----------------|
B|---------------------------------------|
G|----------5----------------------------|       x4
D|--3-3/5/3---3-3/5/3--------------------|      
A|---------------------------------------|     
E|---------------------------------------|


Verses

    F  F       C/F    
e|--1--1-------8---1---------------------|
B|--1--1-------8---1---------------------|
G|--2--2-------9---2---------------------|       x4
D|--3--3-------10--3---------------------|
A|--3--3-------10--3---------------------|
E|--1--1-------8---1---------------------|

Chorus

    G  Bb  F  F
e|--3--6--10--1--------------------------|
B|--3--6--10--1--------------------------|
G|--4--7--10--2--------------------------|       x2
D|--5--8--10--3--------------------------|  
A|--5--8--8---3--------------------------|
E|--3--6--8---1--------------------------|

Chorus end

e|------8--------------------------------|
B|--7h8----------------------------------|
G|---------------------------------------|
D|---------------------------------------|
A|---------------------------------------|
E|---------------------------------------|

Solo

e|----8---13---8--------8---7---13-12---9h11p9-------|
B|--7---7----7---7-11-7---7---7----------------11----|
G|---------------------------------------------------|
D|---------------------------------------------------|
A|---------------------------------------------------|
E|---------------------------------------------------|

e|------------12------------------12------------------------------------------8|
B|--9--11--12----12/6---9--11--12----12/10-10-10-10/8-8-8/6-6-6-6/4-4-4/6-7-8--|
G|-----------------------------------------------------------------------------|
D|-----------------------------------------------------------------------------|
A|-----------------------------------------------------------------------------|
E|-----------------------------------------------------------------------------|
Suggest correction
Give kudos to tab author, rate the tab!
1 2 3 4 5
comments
print report bad tab
guest
You may want to rate the tab now too:
select rating
Wanna post a correction for this tab? Suggest correction