Oops, an error
Loading. Please wait.

Culture Vulture Tab

version 2
version 2

Intro

Whole song

396 views 3 this week
no commentswrite comment
1 2 3 4 5
excellent!
x 1
add to favorites
launch autoscroll
font size
0
reset
how to read this tab
guitar tuner
Tab Pro tools
  • play this tab
  • loop segment
  • change instrument
  • show fretboard
  • metronome
Autoscroll
slow
fast
+/-
esc
set tempo
stop
Difficulty
novice
Song: Culture Vulture
Band: The Skints

Intro:
|-------------|
|-------------|
|-------------|
|---7-6-5-6---|
|---7-6-5-6---|
|---5-4-3-4---|

Chorus/Verse:
    C#m     G#m
|---4---4---4---4---|
|---5---5---4---4---|
|---6---6---4---4---|
|---6---6---6---6---| x 3
|---4---4---6---6---|
|-----------4---4---|

    A   G#m C#m
|---5---4---4---4---|
|---5---4---5---5---|
|---6---4---6---6---|
|---7---6---6---6---|
|---7---6---4---4---|
|---5---4-----------|

Breakdown:
|--------------------------------------------------------|
|--------------------------------------------------------|
|---6--6--6-6---4--4--4-4---6--6--6-8--8--8--------------|
|---6--6--6-6---4--4--4-4---6--6--6-8--8--8--6--6--6-6---|
|---4--4--4-4---2--2--2-2---4--4--4-6--6--6--6--6--6-6---|
|--------------------------------------------4--4--4-4---|

Ending:
This is the bassline as close as i can get it
|---------------------------------------------|
|---------------------------------------------|
|---4--4--4444222-2---244444h6-4h6-4h6--------|
|----------------4---------------------4--4---|

    C#m     B       C#m D#m G#m
|---4---4---2---2---4---6---4---4---|
|---5---5---4---4---5---7---4---4---|
|---6---6---4---4---6---8---4---4---|
|---6---6---4---4---6---8---6---6---|
|---4---4---2---2---4---6---6---6---|
|---------------------------4---4---|

|---------------------------------------------4---|
|---------------------------------------------4---|
|---------------------------------------------4---|
|-----------------6-6-6-6---------------------4---|
|---4--4-6-7-6-4-------------4--4-6-7-6-4---------|
|------------------------------------------4------|

|-------------------------------------------|
|-------------------------------------------|
|-------------------------------------------|
|-----------------6-6-6-6-------------------|
|---4--4-6-7-6-4------------4-4-4-2-2-2-----|
|---------------------------------------4---|

Thats basically it.
comments
We did not receive enough feedback on this tab! Please rate:
print report bad tab
1 2 3 4 5
I want to post or [tab]
guest
You may want to rate the tab now too:
select rating
Please do not post tabs as comments. Select "correction" instead!