Oops, an error
Loading. Please wait.

Old Dirt Farmer Tab

4 views 1 this week
no commentswrite comment
1 2 3 4 5
3 more votes to show rating
add to favorites
launch autoscroll
font size
0
reset
how to read this tab
guitar tuner
Autoscroll
slow
fast
+/-
esc
set tempo
stop
Help us to improve Ultimate-Guitar.com Take our survey!
×
The Sleepy Jackson
Album: Lovers
Song: Old Dirt Farmer

[Intro]
Normal tuning: EADGBE

e|-----------0------3--------------------------------------------------0-----|
B|-3--------------------------3-------------1---------------1--3-------------|
G|-----0---------0-------0--------0---0h2-------2--0----0----------0-------0-|
D|---0---------0-------0--------0---------2----------2----2------0-------0---|
A|------------------------------------0-------0--0-------------2-----2-------|
E|-3------3---------3-------3------------------------------------------------|

e|------------------------0--------------------------------------------------|
B|-1-------1------3--------------1-------1-----------------------------------|
G|-----2-------2------0-------0------2-------2-------------------------------|
D|---2-------2------0-------0------2-------2---------------------------------|
A|-0-----0--------2-----2--------0-----0-------------------------------------|
E|---------------------------------------------------------------------------|

e|-----------0------3--------------------------------------------------0-----|
B|-3--------------------------3--------------------------------3-------------|
G|-----0---------0-------0--------0----2----2-0h2p-0----0---0------0-------0-|
D|---0---------0-------0--------0-----2----2--2------2----2------0-------0---|
A|-----------------------------------0----0-----------0--------2-----2-------|
E|-3------3---------3-------3------------------------------------------------|

e|------------------------0--------------------------------------------------|
B|-1-------1------3--------------1-------1-----------------------------------|
G|-----2-------2------0-------0------2-------2-------------------------------|
D|---2-------2------0-------0------2-------2---------------------------------|
A|-0-----0--------2-----2--------0-----0-------------------------------------|
E|---------------------------------------------------------------------------|


G | Am | C | G
G | Am | C | G
Am| C  | G | D
Am| C  | G | C
Am| D


************************************

| h  Hammer-on
| p  Pull-off

************************************
Suggest correction
Give kudos to tab author, rate the tab!
1 2 3 4 5
comments
print report bad tab
guest
You may want to rate the tab now too:
select rating
Wanna post a correction for this tab? Suggest correction