Oops, an error
Loading. Please wait.

This Day Chords

3,457 views 3 this week
no commentswrite comment
1 2 3 4 5
excellent!
x 1
add to favorites
launch autoscroll
font size
0
reset
transpose
0
reset
- display chords -
guitar tuner
Tab Pro tools
  • play this tab
  • loop segment
  • change instrument
  • show fretboard
  • metronome
Autoscroll
slow
fast
+/-
esc
set tempo
stop
Contributor
Tabbed By: Nick Ward
Song: This Day
Artist: the sleepy Jackson
Album: Lovers 

             F      C      G            F     C      G
This will take some time I know and its going slow I know

C           G                     F        Am
You miss my friends more than you ever miss me 

G                                         F
Meeeeeeeeeeeeeeeeeeeeeeeeeeeeeeeeeeeeeeeee

G             C   Am         Em        G  Am
Meeeeeeeeeeeeeeee Meeeeeeeeeeeeeeeeeeee

                   F        G   Am   
And its through if you cant see 

                          C
All the things that we're going through

      C             C             C             C                    F
It'll take a while, take a while, take a while, take a while with you

Prechorus
Am                Em   Am              Em      
When you know I'm down and I'm in your town

         F     C   F          C
You'll stay at home you stay alone

G                         Am       Em
I said I don't know how to live my life

       F             Am             Em
The sun comes in the morning and it waits a night

F                C       Am  Em     G
And I've got the one the only one I know

               Dm
Na na na na na na na

         G
Na na na naaaaaa        

Solo

  Am                   F                    G
e|--------------------|--------------------|-------------------|
B|--------------------|--------------------|---------------v13-|
G|---12/v14-----------|--------------------|---------12/14-----|
D|--------------------|--------------------|-------------------|
A|--------------------|--------------------|-------------------|
E|--------------------|--------------------|-------------------|
 Am                   C                    C   
e|--------------------|-v12----------------|-------------------|
B|--------------------|--------------------|-------------------|
G|--------------------|--------------------|-v14/v12-----------|
D|--------------------|--------------------|-------------------|
A|--------------------|--------------------|-------------------|
E|--------------------|--------------------|-------------------|

  C                   C                    C
e|--------------------|--------------------|-v15/v12-12p10-12---|
B|--------------------|-v15/v13------------|--------------------|
G|-v14/v12------------|--------------------|--------------------|
D|--------------------|--------------------|--------------------|
A|--------------------|--------------------|--------------------|
E|--------------------|--------------------|--------------------|


Prechorus
Am               Em    Am              Em      
When you know I'm down and I'm in your town

         F     C   F          C
You'll stay at home you stay alone

G                          Am      Em
I said I don't know how to live my life

    F                Am             Em
The sun comes in the morning and it waits a night

F                C       Am  E     G
And I've got the one the only one I know


X5          Dm
Na na na na na na na

         G
Na na na naaaaaa        

C
Yeah yeah yeah yeeaahhhh  


       F         C         G         Am        Em        Dm
e |----1----|----0----|----3----|----0----|----0----|----1----|
B |----1----|----1----|----0----|----1----|----0----|----3----|
G |----3----|----0----|----0----|----2----|----0----|----2----|
B |----4----|----2----|----0----|----2----|----2----|----0----|
A |----4----|----3----|----2----|----0----|----2----|----x----|
E |----1----|----x----|----3----|----x----|----0----|----x----|


Any comments email at nickward1983@hotmail.com
comments
We did not receive enough feedback on this tab! Please rate:
print report bad tab
1 2 3 4 5
I want to post or [tab]
guest
You may want to rate the tab now too:
select rating
Please do not post tabs as comments. Select "correction" instead!