Oops, an error
Loading. Please wait.

Even Rats tab

version 3
version 3

Whole song

Interactive

1,425 views 1 this week
13 commentsread comments
1 2 3 4 5
x 4
add to favorites
×
Save as Personal and add changes to this tab that will be seen only by you. Learn more ›
×
You can save this tab as Personal to edit and correct it or add notes. All changes will be seen only by you. Learn more »
launch autoscroll
font size
0
reset
how to read this tab
guitar tuner
backing track
0:00
0:00
edit
Autoscroll
slow
fast
+/-
esc
set tempo
stop
Difficulty
intermediate
e |------------------|------------------|------------------|
B |------------------|------------------|------------------|
G |-------11-7-------|------------------|------------------|
D |---7/9------------|------------------|------------------|X23
A |------------------|------------------|------------------|
E |------------------|------------------|------------------|

e |-------------------------------------|------------------|
B |-------------------------------------|------------------|
G |--77-7-7-----------------------------|------------------|
D |----9-9-9-7—-7--9--9-----------------|------------------|X2
A |-----------10-10-10-10---------------|------------------|
E |-------------------------------------|------------------|

e |--------------------------------------------------------|
B |--------------------------------------------------------|
G |--------------------------------------------------------|
D |-7777-7777-7777------10-9---10-9------------------------|
A |-5555-5555-5555-----------10-----10---------------------|
E |--------------------------------------------------------|

e |--------------------------------------------------------|
B |--------------------------------------------------------|
G |--77-7-7------------------------------------------------|
D |----9-9-9-7--7--9--9------------------------------------|X2
A |-----------10-10-10-10----------------------------------|
E |--------------------------------------------------------|

e |--------------------------------------------------------|
B |--------------------------------------------------------|
G |--------------------------------------------------------|
D |-7777-7777-7777------10-9---10-9------------------------|
A |-5555-5555-5555-----------10-----10---------------------|
E |--------------------------------------------------------|

e |--------------------------------------------------------|
B |--------------------------------------------------------|
G |--------------------------------------------------------|
D |--10-9--10-9---10-9--12-12-12-12------------------------|x2
A |------10----10-------10-10-10-10------------------------|
E |--------------------------------------------------------|

e |--------------------------------------------------------|
B |--------------------------------------------------------|
G |--------------------------------------------------------|
D |--10-9--10-9---10-9--7777-------------------------------|
A |------10----10-------5555-------------------------------|
E |--------------------------------------------------------|

e |--------------------------------------------------------|
B |--------------------------------------------------------|
G |--------------------------------------------------------|
D |--9-7-5-9-7-5-9-7---7777--------------------------------|
A |--------------------5555--------------------------------|
E |--------------------------------------------------------|

e |--------------------------------------------------------|
B |--------------------------------------------------------|
G |--------------------------------------------------------|
D |--9-7-5-9-7-5-9-7-5-------------------------------------|
A |--------------------5/6~--------------------------------|
E |--------------------------------------------------------|

e |--------------------------------------------------------|
B |--------------------------------------------------------|
G |--------------------------------------------------------|
D |--7-5--7-5--7-5~----------------------------------------|x3
A |-----7----7---------------------------------------------|
E |--------------------------------------------------------|

e |--------------------------------------------------------|
B |--------------------------------------------------------|
G |--77-7-7------------------------------------------------|
D |----9-9-9-7--7--9--9------------------------------------|X2
A |-----------10-10-10-10----------------------------------|
E |--------------------------------------------------------|

e |--------------------------------------------------------|
B |--------------------------------------------------------|
G |--------------------------------------------------------|
D |-7777-7777-7777------10-9---10-9-------10---------------|
A |-5555-5555-5555-----------10-----10---------------------|
E |--------------------------------------------------------|

e |--------------------------------------------------------|
B |--------------------------------------------------------|
G |--------------------------------------------------------|
D |--10-9--10-9---10-9--12-12-12-12------------------------|x2
A |------10----10-------10-10-10-10------------------------|
E |--------------------------------------------------------|

e |--------------------------------------------------------|
B |--------------------------------------------------------|
G |--------------------------------------------------------|
D |--10-9--10-9---10-9--7777-------------------------------|
A |------10----10-------5555-------------------------------|
E |--------------------------------------------------------|

e |--------------------------------------------------------|
B |--------------------------------------------------------|
G |--------------------------------------------------------|
D |--9-7-5-9-7-5-9-7---7777--------------------------------|
A |--------------------5555--------------------------------|
E |--------------------------------------------------------|

e |--------------------------------------------------------|
B |--------------------------------------------------------|
G |--------------------------------------------------------|
D |--9-7-5-9-7-5-9-7-5-------------------------------------|
A |--------------------5/6~--------------------------------|
E |--------------------------------------------------------|

e |--------------------------------------------------------|
B |--------------------------------------------------------|
G |--------------------------------------------------------|
D |--7-5--7-5--7-5~----------------------------------------|x3
A |-----7----7---------------------------------------------|
E |--------------------------------------------------------|

e |--------------------------------------------------------|
B |--------------------------------------------------------|
G |--------------------------------------------------------|
D |--7-5--7-5--7-5---7-5---7-5--7-5---7-5~-----------------|x3
A |-----7----7-----7-----7-----7----7----------------------|
E |--------------------------------------------------------|

e |--------------------------------------------------------|
B |--------------------------------------------------------|
G |---------------------11-12------------------------------|
D |--7-5-9-7-10-9-12-10------------------------------------|
A |--------------------------------------------------------|
E |--------------------------------------------------------|

e |--------------------------------------------------------|
B |--------------------------------------------------------|
G |-12-11-9------------------------------------------------|x2
D |--------12-10-9-----------------------------------------|
A |--------------------------------------------------------|
E |--------------------------------------------------------|

e |--------------------------------------------------------|
B |--------------------------------------------------------|
G |-12-11-9------------------------------------------------|
D |--------12-10-9-7-5-------------------------------------|
A |--------------------------------------------------------|
E |--------------------------------------------------------|

e |--------------------------------------------------------|
B |--------------------------------------------------------|
G |-------11-7---------------------------------------------|
D |---7/9--------------------------------------------------|x8
A |--------------------------------------------------------|
E |--------------------------------------------------------|

e |----------10--------------------------------------------|
B |--12-7-10~---8-10~-12-7~-8-10-12-7-10~------------------|
G |--------------------------------------------------------|
D |--------------------------------------------------------|
A |--------------------------------------------------------|
E |--------------------------------------------------------|

e |--10----------------------------------------------------|
B |-----8-10~-12-7~-8-10-12-7-10~--------------------------|
G |--------------------------------------------------------|
D |--------------------------------------------------------|x4
A |--------------------------------------------------------|
E |--------------------------------------------------------|
Then it goes into a small hammer on/ pull off part on b, frets 10 and 12

Then finally:

e |--10----------------------------------------------------|
B |-----8-10~-12-7~-8-10-12-7-10~--------------------------|
G |--------------------------------------------------------|
D |--------------------------------------------------------|
A |--------------------------------------------------------|
E |--------------------------------------------------------|

e |--10----------------------------------------------------|
B |-----8-10~-12-7~-8-10-12~-------------------------------|
G |--------------------------------------------------------|
D |--------------------------------------------------------|x2
A |--------------------------------------------------------|
E |--------------------------------------------------------|
Suggest correction
Creating personal tab
Creating personal tab
You can edit any tab online and save it as your Personal.

You can edit, replace or remove any tab part or add personal notes – all changes will be seen only by you.

Personal tabs can be accessed anytime from any device, even offline.
Learn more »
comments
print report bad tab
13 comments total. Showing first comments.
0 reply
bluesman_39 10 Jul 29, 2006 03:39 PM

wow, this is infinhetly better than the first one. this song is hard to tab because the guitar is very hard to hear. awesome job tho!

0 reply
bpgoalie24 16 Jul 31, 2006 07:43 AM

you copied mine, Really dont take someones else work.

0 reply
used123 30 Aug 09, 2006 02:09 AM

umm.. you did the solo=about 1-2 minutes. i did the entire song= about 6-7 minutes. pray tell how that is copying yours, seeing as all yours is is one line of tabbing, mine is well, much longer than that

guest
Wanna post a correction for this tab? Suggest correction