Oops, an error
Loading. Please wait.

Block Out The Sun Tab

25 views 3 this week
no commentswrite comment
1 2 3 4 5
3 more votes to show rating
add to favorites
launch autoscroll
font size
0
reset
how to read this tab
guitar tuner
×
Best way to learn
"Block Out The Sun"
Autoscroll
slow
fast
+/-
esc
set tempo
stop
Author
Difficulty
Capo
  follow
novice
3rd fret
About this tab version
Block out the sun slow readers club acoustic. Was this info helpful? Yes No
The Slow Readers Club - Block Out The Sun Acoustic
For timings see video: https://www.youtube.com/watch?v=W7pjSgOXqds

Chords used in chorus:
C:x32010
Dadd4add9:x54030
Em:022000


[Intro]

e|----------------------------|
B|---------0-0h1--------0-----|
G|-------2------------2---2---|
D|-----2------------2---------|      
A|---0------------0-----------|
E|----------------------------|(x2)


[Verse] (x3)

e|-------------------------------------------------------------|
B|---------0-0h1--------0-----------0-0h1---------0-------1h0--|
G|-------2------------2---2-------2------------2----2----------|
D|-----2------------2-----------2------------2-----------------|
A|---0------------0-----------0------------0-------------------|
E|-------------------------------------------------------------|
                                                                            
e|--------3---3-------3---3-------3---3-------3---3---|                 
B|--------0---0-------0---0-------0---0-------0---0---|
G|----------0-----------0-----------0-----------0-----|
D|------0------------0-----------0-----------0--------|
A|----2------------2-----------2-----------2----------|
E|--3------------3-----------3-----------3------------|


[Chorus]

 C  Dadd4add9  Em


[Verse] (x3)

e|-------------------------------------------------------------|
B|---------0-0h1--------0-----------0-0h1---------0-------1h0--|                
G|-------2------------2---2-------2------------2----2----------|               
D|-----2------------2-----------2------------2-----------------|
A|---0------------0-----------0------------0-------------------|
E|-------------------------------------------------------------|
                                                                              
e|--------3---3-------3---3-------3---3-------3---3---|                 
B|--------0---0-------0---0-------0---0-------0---0---|
G|----------0-----------0-----------0-----------0-----|
D|------0------------0-----------0-----------0--------|
A|----2------------2-----------2-----------2----------|
E|--3------------3-----------3-----------3------------|


[Chorus]

 C  Dadd4add9  Em


[Outro]

 C  Dadd4add9  Em   (x2)



************************************

| h  Hammer-on

************************************
Suggest correction
Give kudos to tab author, rate the tab!
1 2 3 4 5
comments
print report bad tab
guest
You may want to rate the tab now too:
select rating
Wanna post a correction for this tab? Suggest correction