Oops, an error
Loading. Please wait.

Sirens Tab

31 views 1 this week
no commentswrite comment
1 2 3 4 5
3 more votes to show rating
add to favorites
launch autoscroll
font size
0
reset
how to read this tab
guitar tuner
Autoscroll
slow
fast
+/-
esc
set tempo
stop
Help us to improve Ultimate-Guitar.com Take our survey!
×
Author
Difficulty
Capo
novice
3rd fret
Slow Readers Club - Sirens 

Tabbed by Callum Dixon


Capo on 3rd fret


[Verse}

e|---------------------------------------------------------------------------|
B|-------------------------------8-6-----------------------------------------|
G|------8---------8---------8----8-7-----------------------------------------|
D|10-10---10---10---10---10---10---------------------------------------------|   X4
A|0------------0---------0---------------------------------------------------|
E|---------------------------------------------------------------------------|

e|---------------------------------------------------------------------------|
B|---------------------------------------------------------------------------|
G|---------------------------------------------------------------------------|
D|-8-8--8-8-8--8-8-8--8-8-8--8-6-6--6-6-6--6-6-6--6-6-5-5--------------------|
A|-8-8--8-8-8--8-8-8--8-8-8--8-6-6--6-6-6--6-6-6--6-6-5-5--------------------|
E|-6-6--6-6-6--6-6-6--6-6-6--6-4-4--4-4-4--4-4-4--4-4-0-0--------------------|


[Pre-Chorus]
  
PM---------------------------------------------------------------------------|                        
e|---------------------------------------------------------------------------|
B|---------------------------------------------------------------------------|
G|---8--8--8--8--8--8--8--8--8--8--8--8--10 10 10 10-------------------------|
D|---10-10-10-10-10-10-10-10-10-10-10-10-10-10-10-10-------------------------|
A|---0--0--0--0--0--0--0--0--0--0--0--0--0--0--0--0--------------------------|
E|---------------------------------------------------------------------------|

e|---------------------------------------------------------------------------|
B|---------------------------------------------------------------------------|
G|12-12-12-12-12-12-12-12-12-12-12-12-13-13-13-13----------------------------|
D|12-12-12-12-12-12-12-12-12-12-12-12-12-12-12-12----------------------------|
A|0--0--0--0--0--0--0--0--0--0--0--0-----------------------------------------|
E|---------------------------------------------------------------------------|


[Chorus]

e|---------------------------------------------------------------------------|
B|---------------------------------------------------------------------------|
G|---------------------------------------------------------------------------|
D|8-8-8-8-----6-6-6-6--------------------------------------------------------|
A|8-8-8-8-X4--6-6-6-6--X4----------------------------------------------------|
E|6-6-6-6-----4-4-4-4--------------------------------------------------------|


[Pre-Outro] 

e|---------------------------------------------------------------------------|
B|---------------------------------------------------------------------------|
G|---------------------------------------------------------------------------|
D|8-8--8-8-8--8-8-8--8-8-8--8-6-6--6-6-6--6-6-6--6-6-6-6---------------------|
A|8-8--8-8-8--8-8-8--8-8-8--8-6-6--6-6-6--6-6-6--6-6-6-6---------------------|
E|6-6--6-6-6--6-6-6--6-6-6--6-4-4--4-4-4--4-4-4--4-4-4-4---------------------|

e|---------------------------------------------------------------------------|
B|---------------------------------------------------------------------------|
G|---------------------------------------------------------------------------|
D|8-8--8-8-8--8-8-8--8-8-8--8-6-6--6-6-6--6-6-6--6-6-5-5---------------------|
A|8-8--8-8-8--8-8-8--8-8-8--8-6-6--6-6-6--6-6-6--6-6-5-5---------------------|
E|6-6--6-6-6--6-6-6--6-6-6--6-4-4--4-4-4--4-4-4--4-4-0-0---------------------|


[Outro]  

PM---------------------------------------------------------------------------|
e|---------------------------------------------------------------------------|
B|---------------------------------------------------------------------------|
G|---8--8--8--8--8--8--8--8--8--8--8--8--8--8--7--8--------------------------|  X4
D|---10-10-10-10-10-10-10-10-10-10-10-10-10-10-10-10-------------------------|
A|---------------------------------------------------------------------------|
E|---------------------------------------------------------------------------|
Suggest correction
Give kudos to tab author, rate the tab!
1 2 3 4 5
comments
print report bad tab
guest
You may want to rate the tab now too:
select rating
Wanna post a correction for this tab? Suggest correction