Oops, an error
Loading. Please wait.

The Boring Life Tab

version 1
version 1

Whole song

272 views 3 this week
3 commentsread comments
1 2 3 4 5
1 last vote to show rating
add to favorites
launch autoscroll
font size
0
reset
how to read this tab
guitar tuner
×
Best way to learn
"The Boring Life"
Autoscroll
slow
fast
+/-
esc
set tempo
stop
Author
--------------------------------------------------------------------------------
			     The Boring Life - The Sly Caps
--------------------------------------------------------------------------------
Tabbed by: Skynyrd 1515

Tuning:EADGBe

		      Verse
e|-------------4----6--------------------------------------------------------|
B|-------------4----6--------------------------------------------------------|
G|---8----5----5----7--------------------------------------------------------|
D|---8----5----6----8--------------------------------------------------------|
A|---6----3----6----8--------------------------------------------------------|
E|-------------4----6--------------------------------------------------------|
     D#   C    G#   A#
		     

                      Chorus
e|---4----6---------6--------------------------------------------------------|
B|---4----6---------6--------------------------------------------------------|
G|---5----7----8----7----5---------------------------------------------------|
D|---6----8----8----8----5---------------------------------------------------|
A|---6----8----6----8----3---------------------------------------------------|
E|---4----6---------6--------------------------------------------------------|
     G#   A#   D#   A#   C


i dont have the solo yet...i am still working on it....

| /  slide up
| \  slide down
| h  hammer-on
| p  pull-off
| ~  vibrato
| +  harmonic
| x  Mute note
===========================================================================
Suggest correction
Give kudos to tab author, rate the tab!
1 2 3 4 5
comments
print report bad tab
3 comments total.
0 reply
SpEeD oF dArK 10 Jan 24, 2003 07:00 PM

tHiS iS sUcH a gReaT baNd x-sPeCiAlly sInCe iM fRoM tHieR hOmetOwn....tHanX foR tHe TaBS!!!!!!
luv ya lots

0 reply
fuzzey82 0 Mar 19, 2003 07:00 PM

good job!

0 reply
mi652 10 Jun 30, 2003 08:00 PM

good tab, but the notes for both the verse and chorus are not power chords, they're bar chords.
not a d# and C power chord
e|---8----3----
B|---8----4----
G|---8----5----
D|---8----5----
A|---6----3----
E|-------------

guest
You may want to rate the tab now too:
select rating
Wanna post a correction for this tab? Suggest correction