Oops, an error
Loading. Please wait.

1979 Tab

version 3
version 3

Whole song

13,330 views 12 this week
2 commentsread comments
1 2 3 4 5
accurate
x 5
add to favorites
launch autoscroll
font size
0
reset
how to read this tab
guitar tuner
Tab Pro tools
  • play this tab
  • loop segment
  • change instrument
  • show fretboard
  • metronome
×
Best way to learn
"1979"
Autoscroll
slow
fast
+/-
esc
set tempo
stop
Difficulty
novice
----------------------------------------------------------------------------
                             1979 - The Smashing Pumpkins
----------------------------------------------------------------------------

Tabbed by: Ryan Patton
Email: ps2guy59@hotmail.com

Tuning: Eb-Ab-Db-Gb-Bb-eb

Intro
eb|-------------------------------------------------------------------|
Bb|-------------------------------------------------------------------|
Gb|-8888888/9\4444444-------------------------------------------------|
Db|-------------------xx-666442244669999-xx---------------------------|
Ab|-6666666/7\2222222-xx-000000000000000-xx---------------------------|
Eb|-0000000-0-0000000-------------------------------------------------|

Verse                              3x, then
eb|-----------------------------------------|-------------------------|
Bb|-----------------------------------------|-------------------------|
Gb|-8888888/9\4444444-----------------------|-9999999-----------------|
Db|-------------------xx-666442244669999-xx-|-7777777-9-999999-xx-----|
Ab|-6666666/7\2222222-xx-000000000000000-xx-|-9999999-9-999999-xx-----|
Eb|-0000000-0-0000000-----------------------|---------7-777777--------|

Repeat

Chorus                              3x, then
eb|-0-0-000-0-000-----0-0-000-0-00-000-|------------------------------|
Bb|-0-0-000-0-000-----2-2-222-2-22-222-|------------------------------|
Gb|-9-9-999-8-888-444-2-2-222-2-22-222-|-9999999----------------------|
Db|-9-9-999-9-999-----2-2-222-2-22-222-|-7777777-9-999999-xx----------|
Ab|-7-7-777-7-777-222-0-0-000-0-00-000-|-9999999-9-999999-xx----------|
Eb|------------------------------------|---------7-777777-------------|

Verse
Chorus, but go into bridge after 3x

Bridge                               3x, then
eb|-------------------------------------|-----------------------------|
Bb|-0-0-000-0-00-0000-5-5-555-0-00-0000-|-----------------------------|
Gb|-4-4-444-4-44-4444-6-6-666-6-66-6666-|-9999999---------------------|
Db|-4-4-444-4-44-4444-6-6-666-7-77-7777-|-7777777-9-999999-xx---------|
Ab|-2-2-222-2-22-2222-4-4-444-0-00-0000-|-9999999-9-999999-xx---------|
Eb|-------------------------------------|---------7-777777------------|

Verse(4x this time, not 3x)
Chorus
Verse(2x this time, not 3x)

End on
eb|--0~------------------|
Bb|--0~------------------|
Gb|--1~------------------|
Db|--2~------------------|
Ab|--2~------------------|
Eb|--0~------------------|
comments
print report bad tab
2 comments total.
-2 reply
S. Hyde wrote on March 10 2006, 04:32 pm

Hey man your tab sucks

0 reply
throwshapes wrote on April 13 2010, 10:44 am

actually its pretty great

I want to post or [tab]
guest
You may want to rate the tab now too:
select rating
Please do not post tabs as comments. Select "correction" instead!