Oops, an error
Loading. Please wait.

Aeroplane Flies High Tab

version 2
version 2

Whole song

Interactive

3,124 views 12 this week
no commentswrite comment
1 2 3 4 5
excellent!
x 5
add to favorites
launch autoscroll
font size
0
reset
how to read this tab
guitar tuner
Tab Pro tools
  • play this tab
  • loop segment
  • change instrument
  • show fretboard
  • metronome
Autoscroll
slow
fast
+/-
esc
set tempo
stop
Contributor
*The Aeroplane Flies High*
Transcribed by Obscured@san.rr.com
Http://home.san.rr.com/obscured


Tuning: Db Ab Db Gb Bb Eb 


INTRO

 Clean                                                            x4
|-------------------------------------------------------------------|
|-------------------------------------------------------------------|
|-------------------------------------------------------------------|
|-3-3-3-3-3-3-3-3-1-1-1-1-1-0-0-0-7-7-7-7-7-7-7-7-7-7-7-10-10-5-5-0-|
|-3-3-3-3-3-3-3-3-1-1-1-1-1-0-0-0-7-7-7-7-7-7-7-7-7-7-7-10-10-5-5-0-|
|-3-3-3-3-3-3-3-3-1-1-1-1-1-0-0-0-7-7-7-7-7-7-7-7-7-7-7-10-10-5-5-0-|
                        enter distortion on the 4th time^

 Distorted                                                        x4
|-------------------------------------------------------------------|
|-------------------------------------------------------------------|
|-------------------------------------------------------------------|
|-3-3-3-3-3-3-3-3-1-1-1-1-1-0-0-0-7-7-7-7-7-7-7-7-7-7-7-10-10-5-5-0-|
|-3-3-3-3-3-3-3-3-1-1-1-1-1-0-0-0-7-7-7-7-7-7-7-7-7-7-7-10-10-5-5-0-|
|-3-3-3-3-3-3-3-3-1-1-1-1-1-0-0-0-7-7-7-7-7-7-7-7-7-7-7-10-10-5-5-0-|
  cut distortion here on 4th time^


VERSE - Clean
                                                                  x4
|-------------------------------------------------------------------|
|-------------------------------------------------------------------|
|-------------------------------------------------------------------|
|-3-3-3-3-3-3-3-3-1-1-1-1-1-0-0-0-7-7-7-7-7-7-7-7-7-7-7-10-10-5-5-0-|
|-3-3-3-3-3-3-3-3-1-1-1-1-1-0-0-0-7-7-7-7-7-7-7-7-7-7-7-10-10-5-5-0-|
|-3-3-3-3-3-3-3-3-1-1-1-1-1-0-0-0-7-7-7-7-7-7-7-7-7-7-7-10-10-5-5-0-|
                        enter distortion on the 4th time^


CHORUS - Distorted
                                                                  x4
|-------------------------------------------------------------------|
|-------------------------------------------------------------------|
|-------------------------------------------------------------------|
|-3-3-3-3-3-3-3-3-1-1-1-1-1-0-0-0-7-7-7-7-7-7-7-7-7-7-7-10-10-5-5-0-|
|-3-3-3-3-3-3-3-3-1-1-1-1-1-0-0-0-7-7-7-7-7-7-7-7-7-7-7-10-10-5-5-0-|
|-3-3-3-3-3-3-3-3-1-1-1-1-1-0-0-0-7-7-7-7-7-7-7-7-7-7-7-10-10-5-5-0-|


VERSE 2 - Clean
                                                                  x6
|-------------------------------------------------------------------|
|-------------------------------------------------------------------|
|-------------------------------------------------------------------|
|-3-3-3-3-3-3-3-3-1-1-1-1-1-0-0-0-7-7-7-7-7-7-7-7-7-7-7-10-10-5-5-0-|
|-3-3-3-3-3-3-3-3-1-1-1-1-1-0-0-0-7-7-7-7-7-7-7-7-7-7-7-10-10-5-5-0-|
|-3-3-3-3-3-3-3-3-1-1-1-1-1-0-0-0-7-7-7-7-7-7-7-7-7-7-7-10-10-5-5-0-|
                        enter distortion on the 6th time^


CHORUS 2 - Distorted
                                                                  x4
|-------------------------------------------------------------------|
|-------------------------------------------------------------------|
|-------------------------------------------------------------------|
|-3-3-3-3-3-3-3-3-1-1-1-1-1-0-0-0-7-7-7-7-7-7-7-7-7-7-7-10-10-5-5-0-|
|-3-3-3-3-3-3-3-3-1-1-1-1-1-0-0-0-7-7-7-7-7-7-7-7-7-7-7-10-10-5-5-0-|
|-3-3-3-3-3-3-3-3-1-1-1-1-1-0-0-0-7-7-7-7-7-7-7-7-7-7-7-10-10-5-5-0-|


BRIDGE
|-------------------------------------------------------------------|
|-------------------------------------------------------------------|
|-------------------------------------------------------------------|
|-3---------------1---------0-----7---------------------10-10-5-5-0-|
|-3---------------1---------0-----7---------------------10-10-5-5-0-|
|-3---------------1---------0-----7---------------------10-10-5-5-0-|


SOLO - Play chorus riff

 Rhythm                                                           x2
|-------------------------------------------------------------------|
|-------------------------------------------------------------------|
|-------------------------------------------------------------------|
|-3---------------1---------0-----7---------------------10-10-5-5-0-|
|-3---------------1---------0-----7---------------------10-10-5-5-0-|
|-3---------------1---------0-----7---------------------10-10-5-5-0-|

|-------------------------------------------------------------------|
|-------------------------------------------------------------------|
|-------------------------------------------------------------------|
|-3---------------1---------0-----7-7-7-7-7-7-7-7-7-7-7-10-10-5-5-0-|
|-3---------------1---------0-----7-7-7-7-7-7-7-7-7-7-7-10-10-5-5-0-|
|-3---------------1---------0-----7-7-7-7-7-7-7-7-7-7-7-10-10-5-5-0-|

                                                                  x9
|-------------------------------------------------------------------|
|-------------------------------------------------------------------|
|-------------------------------------------------------------------|
|-3-3-3-3-3-3-3-3-1-1-1-1-1-0-0-0-7-7-7-7-7-7-7-7-7-7-7-10-10-5-5-0-|
|-3-3-3-3-3-3-3-3-1-1-1-1-1-0-0-0-7-7-7-7-7-7-7-7-7-7-7-10-10-5-5-0-|
|-3-3-3-3-3-3-3-3-1-1-1-1-1-0-0-0-7-7-7-7-7-7-7-7-7-7-7-10-10-5-5-0-|

|-----------------------------------------------------------------|
|-----------------------------------------------------------------|
|-----------------------------------------------------------------|
|-3-3-3-3-3-3-3-3-1-1-1-1-1-0-0-0-7-7-7-7-7-7-7-7-7-7-7-7-7-7-7-7-|
|-3-3-3-3-3-3-3-3-1-1-1-1-1-0-0-0-7-7-7-7-7-7-7-7-7-7-7-7-7-7-7-7-|
|-3-3-3-3-3-3-3-3-1-1-1-1-1-0-0-0-7-7-7-7-7-7-7-7-7-7-7-7-7-7-7-7-|


Lead
 (4:48)
|-------------------------------------------------------------------
|-------------------------------------------------------------------
|------------------------------(6)b7~~r6~~-7b9~~r7p6~~~~-5----------
|-5h7~~~~--5h7~~b8r7~~~~--5h7~~----------------------------7-5~~~~--
|-------------------------------------------------------------------
|-------------------------------------------------------------------

 (5:07)                           (5:16)
 -------------------------------------------------------------------
 -------------------------------------------------------------------
 -----------------------------------------------5h7b8r7-----5h7b8r7-
 -5h7~~~~-5h7~~b8r7~~p5/7---------7~~-5-7~~-5h7---------5h7---------
 -------------------------\4~~~~------------------------------------
 -------------------------------------------------------------------

                             (5:26)
 -------------------------------------------------------------------
 -----------------12r10~~~~--------------------------14~~~~-15\(12)-
 -8r6~~--6h7/9~~-------------12h14~~--15r14~~-12~~~~----------------
 -------------------------------------------------------------------
 -------------------------------------------------------------------
 -------------------------------------------------------------------

  (5:36)                                                     (5:46)
 -------------------------------------------------------------------
 -------------------------------------------------------------------
 -15r14p12~~-12h14b15r14~~------------------------------------------
 --------------------------12~~--15r14~~-12-------------------------
 -------------------------------------------14h15p14p12~~~~--10h12--
 -------------------------------------------------------------------

 -------------------------------------------------------------------
 -------------------------------------------------------------------
 -------------------------------------------------------------------
 -10h12b13r12-------10h12b13r12-------10h12b13r12-------10h12b13r12-
 -------------10h12-------------10h12-------------10h12-------------
 -------------------------------------------------------------------

 -------------------------------------------------------------------
 -------------------------------------------------------------------
 -------------------------------------------------------------------
 -------10h12b13r12-------10h12b13r12-------10h12b13r12-------10h12b
 -10h12-------------10h12-------------10h12-------------10h12-------
 -------------------------------------------------------------------

                           (5:55)
 -------------------------------------------------------------------
 -------------------------------------------------------------------
 -------------------------------------------------------------------
 13r12-------10h12b13r12~~------------------------------------------
 ------10h12---------------10-12-14b15r14~~-10-12-12~~--10h12p10h12h
 -------------------------------------------------------------------

 -------------------------------------------------------------------
 -------------------------------------------------------------------
 -------------------------------------------------------------------
 ----------------------------------------------(10)h12gb13r12p10~~--
 10h12~~~~--12-14b15r14~~-13~~--10h12p10h12~~-----------------------
 -------------------------------------------------------------------

 (6:15)
 -15b17~~~~--15b(18)r17~~~~-----------------------------------------
 ----------------------------14~~-------14--------------------------
 ---------------------------------11~~-----11~~--14b15r14p12--------
 ------------------------------------------------------------14-----
 ---------------------------------------------------------------10~~
 -------------------------------------------------------------------

 (6:25)
 -------------------------------------------------------------------
 -------------------------------------------------------------------
 -------------------------------------------------------------------
 ---------------------10h12b13r12--12-14~~--12h14p12\11~~--11h12h14-
 -12~~-10-12~~--10h12-----------------------------------------------
 -------------------------------------------------------------------

 -------------------------------------------------15b17~~~~---------
 -----------------------------13-------17~~-13~~------------17r16~~-
 -----------------------12~~-----14~~-------------------------------
 -12h14b15r14--11h12h14---------------------------------------------
 -------------------------------------------------------------------
 -------------------------------------------------------------------
 
 (6:39)
 -------------------------------------------------------------------
 -13h14~~-----------------------------------------------------------
 ----------12h14b15r14p12-------------------------------------------
 -------------------------h14b15r14p12------------------------------
 ---------------------------------------h14b15r14p12\10h12~~~~~~~~--
 -------------------------------------------------------------------

 (6:44)
 -----------------------------------------------|
 -----------------------------------------------|
 -----------------------------------------------|
 -7-----7---7---7---7---7--------7/9p7\5h7~~~~--|
 ---5~~---5---5---5---5---5~~~~-----------------|
 -----------------------------------------------|


INTERLUDE
                               x11
|---------------------------------|------------|
|---------------------------------|------------|
|---------------------------------|------------|
|-1-1-1-0-0-0-0-7-7-7-7-7-7-7-7-7-|-1-1-1-0----|
|-1-1-1-0-0-0-0-7-7-7-7-7-7-7-7-7-|-1-1-1-0----|
|-1-1-1-0-0-0-0-7-7-7-7-7-7-7-7-7-|-1-1-1-0----|

Lead (Play with partial/artificial harmonics towards the end)
|-----------------------|
|-----------------------|
|-----------------------|
|-7b8r7-5-7b8r7-5-7~~~~-|
|-----------------------|
|-----------------------|


OUTRO - Tune to C G C F A D
|-------------------------------------------------------------------|
|-------------------------------------------------------------------|
|-------------------------------------------------------------------|
|---3-----3-----------1-------0-----7-----7-----7-------------------|
|-----3-----3---3---1---1-------0-----7-----7-----7---7----10---5---|
|-3-----3-----3---1-------1-0-----7-----7-----7-----7---10----5---0-|
comments
print report bad tab
I want to post or [tab]
guest
You may want to rate the tab now too:
select rating
Please do not post tabs as comments. Select "correction" instead!