Oops, an error
Loading. Please wait.

Ava Adore Tab

version 2
version 2

Whole song

Interactive

40,074 views 3 this week
5 commentsread comments
1 2 3 4 5
excellent!
x 8
add to favorites
launch autoscroll
font size
0
reset
how to read this tab
guitar tuner
Tab Pro tools
  • play this tab
  • loop segment
  • change instrument
  • show fretboard
  • metronome
×
Best way to learn
"Ava Adore"
Autoscroll
slow
fast
+/-
esc
set tempo
stop
Contributor
Tuning: Eb Ab Db Gb Bb Eb


INTRO/VERSE - Bass
                  x10
|--------------------|
|--------------------|
|--------------------|
|-2-2----0-2-2-2/5-0-|


PRECHORUS

|-0-------2-------2---------------|
|-0-------3-------2---------------|
|-1-------4-------2---------------|
|-2-------4-------4---------------|
|-2-------2-------4---------------|
|-0---------------2---------------|

|-0-------2-------|
|-0-------3-------|
|-1-------4-------|
|-2-------4-------|
|-2-------2-------|
|-0---------------|


CHORUS

|-0-------4-------5---2---0-------|
|-0-------5-------5---2---0-------|
|-2-------6-------7---4---2-------|
|-2-------6-------7---4---2-------|
|-0-------4-------5---2---0-------|
|---------------------------------|


VERSE 2 - Bass
                   x8
|--------------------|
|--------------------|
|--------------------|
|-2-2----0-2-2-2/5-0-|


PRECHORUS 2

|-0-------2-------2---------------|
|-0-------3-------2---------------|
|-1-------4-------2---------------|
|-2-------4-------4---------------|
|-2-------2-------4---------------|
|-0---------------2---------------|

|-0-------2-------|
|-0-------3-------|
|-1-------4-------|
|-2-------4-------|
|-2-------2-------|
|-0---------------|


CHORUS 2

|-0-------4-------5---2---0-------|
|-0-------5-------5---2---0-------|
|-2-------6-------7---4---2-------|
|-2-------6-------7---4---2-------|
|-0-------4-------5---2---0-------|
|---------------------------------|

|-0-------4-------5---2---0-------2--------|
|-0-------5-------5---2---2-------2--------|
|-2-------6-------7---4---2-------4--------|
|-2-------6-------7---4---2-------4--------|
|-0-------4-------5---2---0-------2--------|
|------------------------------------------|


VERSE 3 - Bass
                   x8
|--------------------|
|--------------------|
|--------------------|
|-2-2----0-2-2-2/5-0-|


PRECHORUS 3

|-0-------2-------|
|-0-------3-------|
|-1-------4-------|
|-2-------4-------|
|-2-------2-------|
|-0---------------|


SOLO - Play chorus riff

 Guitar 1
|--------------------------------------
|-----------------------------2-2-5----
|---------------------2-2-4-4----------
|-------------2-2-4-4------------------
|-----2-2-4-4--------------------------
|-5-5----------------------------------
|
|Guitar 2
|--------------------------------------
|-----------------------------2-2-5----
|---------------------2-2-4-4----------
|-------------2-2-4-4------------------
|-----2-2-4-4--------------------------
|-5-5----------------------------------

 Guitar 1
|-------------------------------------|
|-------------------------------------|
|-6p4h6p4--7-6h7p6\4--4h6p4\2-4b6~~~~-|
|-------------------------------------|
|-------------------------------------|
|-------------------------------------|
|
|Guitar 2
|-------------------------------------|
|----------7-5h7p5\3--3h5p3\2-3b5~~~~-|
|-6p4h6p4-----------------------------|
|-------------------------------------|
|-------------------------------------|
|-------------------------------------|


CHORUS 3
                                x2
|-0-------4-------5---2---0-------|
|-0-------5-------5---2---0-------|
|-2-------6-------7---4---2-------|
|-2-------6-------7---4---2-------|
|-0-------4-------5---2---0-------|
|---------------------------------|

|-2-------0-------2-------|
|-2-------0-------2-------|
|-4-------2-------4-------|
|-4-------2-------4-------|
|-2-------0-------2-------|
|-------------------------|


VERSE 4/OUTRO

Bass               x8
|--------------------|
|--------------------|
|--------------------|
|-2-2----0-2-2-2/5-0-|

                                x6
|-0-------2-------2---------------|
|-0-------3-------2---------------|
|-1-------4-------2---------------|
|-2-------4-------4---------------|
|-2-------2-------4---------------|
|-0---------------2---------------|


Fade out...
comments
print report bad tab
5 comments total. Showing first comments.
0 reply
brokenskylines4 wrote on December 17 2006, 05:08 pm

i gave this a four because i thought there were parts missing

but i may have missed them some where
otherwise everything sounded correct
kudos on the solo it was perfect

0 reply
matt_fender_3 wrote on May 16 2007, 05:04 pm

i feel dumb for asking this but, what is a pinch harmonic?it looks like a regualr harmonic..oo yea perfect by the way.

0 reply
tbarrettl wrote on June 23 2007, 07:07 pm

nice, just like the BBC one

I want to post or [tab]
guest
You may want to rate the tab now too:
select rating
Please do not post tabs as comments. Select "correction" instead!