Oops, an error
Loading. Please wait.

Behold The Night Mare Tab

version 2
version 2

Whole song

Interactive

1,890 views 3 this week
1 commentread comment
1 2 3 4 5
please rate
add to favorites
launch autoscroll
font size
0
reset
how to read this tab
guitar tuner
Tab Pro tools
  • play this tab
  • loop segment
  • change instrument
  • show fretboard
  • metronome
Autoscroll
slow
fast
+/-
esc
set tempo
stop
Contributor
Tuning: D A D F# A D (Open D)


INTRO - Just strum on this chord
|-0----|
|-0----|
|-3----|
|-0----|
|-0----|
|-0----|


VERSE
                  x2
|-0--------0--------|-0--------|
|-0--------0--------|-0--------|
|-3--------3--------|-3--------|
|-4--------0--------|-4--------|
|-X--------0--------|-X--------|
|-4--------0--------|-4--------|


BRIDGE
|-0--------|
|-0--------|
|-5--------|
|-4--------|
|-5--------|
|-5--------|


PRECHORUS
                x5
|-2-2-2-2-0-0-0-0-|
|-0-0-0-0-0-0-0-0-|
|-3-3-3-3-1-1-1-1-|
|-2-2-2-X-2-2-2-2-|
|-0-0-0-2-X-X-X-X-|
|---------2-2-2-2-|


BRIDGE 2
|-0--------|
|-0--------|
|-5--------|
|-4--------|
|-5--------|
|-5--------|


CHORUS
                  x4
|-0--------2--------|
|-0--------0--------|
|-3--------3--------|
|-0--------4--------|
|-0--------X--------|
|-0--------4--------|


BRIDGE 3
|-0--------|
|-0--------|
|-5--------|
|-4--------|
|-5--------|
|-5--------|


INTERLUDE - With sligh variations
                                                  x3
|-------------------------0-------------------------|
|-----0------0---------------------0----------0---0-|
|---0------1------3-----2---2---1----1-----5--------|
|-----------------------------------------------5---|
|---------------------------------------------------|
|-0------2------4---4---3-------2------2/5-5--------|

|-------------------------0-----------|
|-----0------0------------------------|
|---0------1------3-----2---2---1-----|
|-------------------------------------|
|-------------------------------------|
|-0------2------4---4---3-------2-----|

                          x2
|---------------------------|
|---------------------0-----|
|-----7------3------5---5---|
|---0------0------0-------0-|
|---------------------------|
|-7------4------5-----------|

|------------------------------|
|------------------------------|
|-----7------3------5--3--2-1--|
|---0------0------0------------|
|------------------------------|
|-7------4------5------4--3-2--|


FEEDBACK SOLO
                x4
|-2-2-2-2-0-0-0-0-|
|-0-0-0-0-0-0-0-0-|
|-3-3-3-3-1-1-1-1-|
|-2-2-2-X-2-2-2-2-|
|-0-0-0-2-X-X-X-X-|
|---------2-2-2-2-|


BRIDGE 4
|-0--------|
|-0--------|
|-5--------|
|-4--------|
|-5--------|
|-5--------|


PRECHORUS 2
                x4
|-2-2-2-2-0-0-0-0-|
|-0-0-0-0-0-0-0-0-|
|-3-3-3-3-1-1-1-1-|
|-2-2-2-X-2-2-2-2-|
|-0-0-0-2-X-X-X-X-|
|---------2-2-2-2-|


CHORUS 2
                  x4
|-0--------2--------|
|-0--------0--------|
|-3--------3--------|
|-0--------4--------|
|-0--------X--------|
|-0--------4--------|


OUTRO - Fade out...
|-0--------0--------|
|-0--------0--------|
|-3--------3--------|
|-0--------4--------|
|-0--------X--------|
|-0--------4--------|

You can also play this way to follow the piano
|-2--2-0-------0--------|
|-0--0-0---4---0--------|
|-3--3-3---3---3--------|
|-0--0-0---0---4--------|
|-0--0-0---0---X--------|
|-0--0-0---0---4--------|
comments
We did not receive enough feedback on this tab! Please rate:
print report bad tab
1 2 3 4 5
1 comment total.
0 reply
paddyirishman wrote on December 29 2010, 06:34 pm

The original tab:

http://www.spfc.org/data/music/gtab/beholdthenightmare-32.tab

Why did you delete the author's details?

I want to post or [tab]
guest
You may want to rate the tab now too:
select rating
Please do not post tabs as comments. Select "correction" instead!