Oops, an error
Loading. Please wait.

Blank Page Tab

version 2
version 2

Whole song

Interactive

878 views 3 this week
1 commentread comment
1 2 3 4 5
please rate
add to favorites
launch autoscroll
font size
0
reset
how to read this tab
guitar tuner
Tab Pro tools
  • play this tab
  • loop segment
  • change instrument
  • show fretboard
  • metronome
×
Best way to learn
"Blank Page"
Autoscroll
slow
fast
+/-
esc
set tempo
stop
Contributor
Difficulty
novice
================================================================================
                       S M A S H I N G   P U M P K I N S

                                       -

                               B L A N K   P A G E
================================================================================


                                     ADORE
                            (c) Virgin Records (1998)
                        http://www.smashingpumpkins.com/


                                 Standard Tuning
                                   E A D G B E

                                  Tempo = 66 BPM
                               Time Signature = 4/4



                          -----------------------------
                                 Transcribed by

                                 PADDY MCMULLAN
                           pmtabs (@t) gmail [dot] com

                                   Version 1.0
                                2nd February 2011
                             -----------------------

                             Tablature Symbols Used:


 5b6       -  Bend Note
 6r5       -  Release Bend
 (/)       -  Legato Slide (Blank space indicates length of slide)
 ( )       -  Ghost Note/Tied Note/Implied Note
 REST      -  Rest and sustain rest for duration of blank space



================================================================================
Part 1: Guitar 1 (Acoustic)                                    [ 00:00 - 00:34 ]
================================================================================



    G          Dm            Am         C             Em         Dm
||--3----3-----1----1-----|--0----0-----3----3-----|--0----0-----1----1-----|
||--3----3-----3----3-----|--1----1-----1----1-----|--0----0--0--3----3-----|
||--0----0--0--2----2--2--|--2----2--2--0----0--0--|--0----0-----2----2--2--|
||--0----0-----0----0-----|--2----2-----2----2-----|--2----2-----0----0-----|
||--2----2----------------|--0----0-----3----3-----|--2----2----------------|
||--3----3----------------|------------------------|--0----0----------------|


   Am         C             G          Em            Dm         Am
|--0----0-----3----3-----|--3----3-----0----0-----|--1----1-----0----0-----|
|--1----1-----1----1-----|--3----3-----0----0-----|--3----3-----1----1-----|
|--2----2--2--0----0--0--|--0----0--0--0----0-----|--2----2--2--2----2-----|
|--2----2-----2----2-----|--0----0-----2----2--2--|--0----0-----2----2--2--|
|--0----0-----3----3-----|--2----2-----2----2-----|-------------0----0-----|
|------------------------|--3----3-----0----0-----|------------------------|


   C          Em            Am         Dm            Am         Dm
|--3----3-----0----0-----|--0----0-----1----1-----|--0----0-----1----1-----||
|--1----1-----0----0--0--|--1----1-----3----3-----|--1----1-----3----3-----||
|--0----0--0--0----0-----|--2----2--2--2----2--2--|--2----2--2--2----2--2--||
|--2----2-----2----2-----|--2----2-----0----0-----|--2----2-----0----0-----||
|--3----3-----2----2-----|--0----0----------------|--0----0----------------||
|-------------0----0-----|------------------------|------------------------||



================================================================================
Part 2: Guitar 1                                          [ Time 00:34 - 01:21 ]
================================================================================


    G          Dm            Am         C             Em         Dm
||--3----3-----1----1-----|--0----0-----3----3-----|--0----0-----1----1-----|
||--3----3-----3----3-----|--1----1-----1----1-----|--0----0--0--3----3-----|
||--0----0--0--2----2--2--|--2----2--2--0----0--0--|--0----0-----2----2--2--|
||--0----0-----0----0-----|--2----2-----2----2-----|--2----2-----0----0-----|
||--2----2----------------|--0----0-----3----3-----|--2----2----------------|
||--3----3----------------|------------------------|--0----0----------------|
    Blank      page    was   all    the rage    never meant  to  say     any-


   C          Em            Am         Dm            C          G
|--3----3-----0----0-----|--0----0-----1----1-----|--3----3-----3----3-----|
|--1----1-----0----0-----|--1----1-----3----3-----|--1----1-----3----3-----|
|--0----0--0--0----0-----|--2----2-----2----2--2--|--0----0--0--0----0--0--|
|--2----2-----2----2--2--|--2----2--2--0----0-----|--2----2-----0----0-----|
|--3----3-----2----2-----|--0----0----------------|--3----3-----2----2-----|
|-------------0----0-----|------------------------|-------------3----3-----|
-thing. In    bed   I was   half       dead tired of dream-     ing   of 


   Am         Em            Dm         Am            C          Em
|--0----0-----0----0-----|--1----1-----0----0-----|--3----3-----0----0-----|
|--1----1--1--0----0-----|--3----3-----1----1-----|--1----1-----0----0-----|
|--2----2-----0----0-----|--2----2--2--2----2--2--|--0----0--0--0----0-----|
|--2----2-----2----2--2--|--0----0-----2----2-----|--2----2-----2----2--2--|
|--0----0-----2----2-----|-------------0----0-----|--3----3-----2----2-----|
|-------------0----0-----|------------------------|-------------0----0-----|
rest.   Got   dressed drove the state  line  looking for        you at the five


   Dm         Am            G          Am            Dm         Am
|--1----1-----0----0-----|--3----3-----0----0-----|--1----1-----0----0-----||
|--3----3-----1----1-----|--3----3-----1----1-----|--3----3-----1----1--1--||
|--2----2--2--2----2--2--|--0----0--0--2----2--2--|--2----2--2--2----2-----||
|--0----0-----2----2-----|--0----0-----2----2-----|--0----0-----2----2-----||
|-------------0----0-----|--2----2-----0----0-----|-------------0----0-----||
|------------------------|--3----3----------------|------------------------||
and dime. Stop sign told me to stay at home  told me you   were not   al-[one]



================================================================================
Part 3: Guitar 1                                          [ Time 01:21 - 01:48 ]
================================================================================


    G          Dm            Am         C             Em         Dm
||--3----3-----1----1-----|--0----0-----3----3-----|--0----0-----1----1-----|
||--3----3-----3----3-----|--1----1-----1----1-----|--0----0--0--3----3-----|
||--0----0--0--2----2--2--|--2----2--2--0----0--0--|--0----0-----2----2--2--|
||--0----0-----0----0-----|--2----2-----2----2-----|--2----2-----0----0-----|
||--2----2----------------|--0----0-----3----3-----|--2----2----------------|
||--3----3----------------|------------------------|--0----0----------------|
-[one] Blank   page    was   all    the rage  never   meant   to hurt any-


   Am         C             G          Em            Dm         Am
|--0----0-----3----3-----|--3----3-----0----0-----|--1----1-----0----0-----|
|--1----1--1--1----1-----|--3----3-----0----0--0--|--3----3-----1----1-----|
|--2----2-----0----0--0--|--0----0--0--0----0-----|--2----2--2--2----2--2--|
|--2----2-----2----2-----|--0----0-----2----2-----|--0----0-----2----2-----|
|--0----0-----3----3-----|--2----2-----2----2-----|-------------0----0-----|
|------------------------|--3----3-----0----0-----|------------------------|
-one.   In    bed     I was half       dead tired of dream-     ing   of


   Em
|--0-------------------||
|--0----0----0----0----||
|--0----0----0---------||
|--2-------------------||
|--2-------------------||
|--0-------------------||
   rest.



================================================================================
Part 4: Guitars 1 & 2                                     [ Time 01:48 - 03:18 ]
================================================================================


---------
Guitar 1:
---------


    C          Em            Am         Dm            Am         Dm
||--3----3-----0----0-----|--0----0-----1----1-----|--0----0-----1----1-----|
||--1----1-----0----0--0--|--1----1-----3----3-----|--1----1-----3----3-----|
||--0----0--0--0----0-----|--2----2--2--2----2--2--|--2----2--2--2----2--2--|
||--2----2-----2----2-----|--2----2-----0----0-----|--2----2-----0----0-----|
||--3----3-----2----2-----|--0----0----------------|--0----0----------------|
||-------------0----0-----|------------------------|------------------------|
     You haven't changed     you're still the same    may you rise as you


   G          Dm            Am         C             Em         Dm
|--3----3-----1----1-----|--0----0-----3----3-----|--0----0-----1----1-----|
|--3----3-----3----3-----|--1----1-----1----1-----|--0----0-----3----3-----|
|--0----0--0--2----2--2--|--2----2--2--0----0--0--|--0----0-----2----2-----|
|--0----0-----0----0-----|--2----2-----2----2-----|--2----2--2--0----0--0--|
|--2----2----------------|--0----0-----3----3-----|--2----2----------------|
|--3----3----------------|------------------------|--0----0----------------|
   fall.


   C         Em            Am         Dm            C          G
|--3----3----0----0-----|--0----0-----1----1-----|--3----3-----3----3-----|
|--1----1----0----0-----|--1----1-----3----3-----|--1----1-----3----3-----|
|--0----0----0----0-----|--2----2--2--2----2--2--|--0----0--0--0----0--0--|
|--2----2----2----2--2--|--2----2-----0----0-----|--2----2-----0----0-----|
|--3----3----2----2-----|--0----0----------------|--3----3-----2----2-----|
|------------0----0-----|------------------------|-------------3----3-----|
      You were easy        you are forgotten        you are the ways of my mis-


   Am         Em            Dm         Am            C          Em
|--0----0-----0----0-----|--1----1-----0----0-----|--3----3-----0----0-----|
|--1----1-----0----0--0--|--3----3-----1----1-----|--1----1-----0----0-----|
|--2----2--2--0----0-----|--2----2--2--2----2--2--|--0----0--0--0----0-----|
|--2----2-----2----2-----|--0----0-----2----2-----|--2----2-----2----2--2--|
|--0----0-----2----2-----|-------------0----0-----|--3----3-----2----2-----|
|-------------0----0-----|------------------------|-------------0----0-----|
  -takes.


   Dm         Am            G          Am            Dm         Am
|--1----1-----0----0-----|--3----3-----0----0-----|--1----1-----0----0-----|
|--3----3-----1----1-----|--3----3-----1----1-----|--3----3-----1----1-----|
|--2----2--2--2----2--2--|--0----0--0--2----2--2--|--2----2--2--2----2--2--|
|--0----0-----2----2-----|--0----0-----2----2-----|--0----0-----2----2-----|
|-------------0----0-----|--2----2-----0----0-----|-------------0----0-----|
|------------------------|--3----3----------------|------------------------|
  I catch the rainfall     through the leaking roof   that you had left be-


   G          Dm            Am         C             Em         Dm
|--3----3-----1----1-----|--0----0-----3----3-----|--0----0-----1----1----|
|--3----3-----3----3-----|--1----1-----1----1-----|--0----0-----3----3----|
|--0----0--0--2----2--2--|--2----2--2--0----0--0--|--0----0--0--2----2----|
|--0----0-----0----0-----|--2----2-----2----2-----|--2----2-----0----0----|
|--2----2----------------|--0----0-----3----3-----|--2----2---------------|
|--3----3----------------|------------------------|--0----0---------------|
 -hind.             You remind         me    of that leak       in    my


   Am        Em          Am        C             G         Em
|--0----0----0--------|--0----0----3----3-----|--3----3----0----0----|
|--1----1----0--------|--1----1----1----1-----|--3----3----0----0----|
|--2----2----0--------|--2----2----0----0--0--|--0----0----0----0----|
|--2----2----2--------|--2----2----2----2-----|--0----0----2----2----|
|--0----0----2--------|--0----0----3----3-----|--2----2----2----2----|
|------------0--------|-----------------------|--3----3----0----0----|
   soul.                 The rain falls          my friends call


   Dm         Am            G
|--1----1-----0----0-----|--3----------------||
|--3----3-----1----1-----|--3----------------||
|--2----2--2--2----2--2--|--0----------------||
|--0----0-----2----2-----|--0----------------||
|-------------0----0-----|--2----------------||
|------------------------|--3----------------||
    leaking rain   on the   phone.



---------
Guitar 2: Clean with delay and tremolo pedal
---------


Rest for 3 bars


||-------------0------0---|---------0----------3----|-(3)-----3-------1---0--|
||--3------3-------6------|--0------1---3--0---5----|-(5)--6------0----------|
||--4---------------------|------------------5------|-(5)--------------------|
||------------------------|-------------------------|------------------------|
||------------------------|-------------------------|------------------------|
||------------------------|-------------------------|------------------------|


|---------0--------0-3---|-(3)----------1--------|-(1)-----0----------------|
|--0----------0----------|-------1---------------|------------0---3--(3/5)--|
|------------------------|-----------------------|--------------------------|
|------------------------|-----------------------|--------------------------|
|------------------------|-----------------------|--------------------------|
|------------------------|-----------------------|--------------------------|


|----------------------3---|---------0--------------|-------1----------0--3--0-|
|-------------------5------|--0----------0----------|--0-----------3-----------|
|--4------4b5r4-4----------|--------------------0---|----0-----0---------------|
|--------------------------|------------------------|--------------------------|
|--------------------------|------------------------|--------------------------|
|--------------------------|------------------------|--------------------------|


|--1------0------------|---------1--------------|----------------------------|
|----------------------|------3------1----------|------3-(3/5)---5 b6r5-0-5--|
|-------------2--------|-(2)----------------0---|-(0)------------------------|
|----------------------|------------------------|----------------------------|
|----------------------|------------------------|----------------------------|
|----------------------|------------------------|----------------------------|


|-------------------------|---------------------|-------------------|
|-(5)  b r 4--0-5   b  6  |r 5--------------5---|--(5)--------------|
|-------------------------|---------------------|-------------------|
|-------------------------|---------------------|-------------------|
|-------------------------|---------------------|-------------------|
|-------------------------|---------------------|-------------------|



Rest for 4 bars


   Fade in
|-------------------||
|--3----------------||
|-------------------||
|-------------------||
|-------------------||
|-------------------||



================================================================================
Part 5: Guitar 1                                          [ Time 03:18 - 03:46 ]
================================================================================


    C                      Fm                     C
||--3----3----3----3----|--1----1--1------1----|--3----3----3----3----|
||--1----1----1----1----|--1----1--1------1----|--1----1----1----1----|
||--0----0----0----0----|--1----1--1------1----|--0----0----0----0----|
||--2----2----2----2----|--3----3--3------3----|--2----2----2----2----|
||--3----3----3----3----|--3----3--3------3----|--3----3----3----3----|
||----------------------|--1----1--1------1----|----------------------|
                   Take a  day         plant some trees        may they


   Fm                     C                      Fm
|--1----1--1------1----|--3----3----3----3----|--1----1--1------1----|
|--1----1--1------1----|--1----1----1----1----|--1----1--1------1----|
|--1----1--1------1----|--0----0----0----0----|--1----1--1------1----|
|--3----3--3------3----|--2----2----2----2----|--3----3--3------3----|
|--3----3--3------3----|--3----3----3----3----|--3----3--3------3----|
|--1----1--1------1----|----------------------|--1----1--1------1----|
   shade   you    from    me           may your  children       play ben-


   Am
|--0----0----0----0----||
|--1----1----1----1----||
|--2----2----2----2----||
|--2----2----2----2----||
|--0----0----0----0----||
|----------------------||
  -eath.



================================================================================
Part 6: Guitars 1 & 2                                     [ Time 03:46 - 04:09 ]
================================================================================


---------
Guitar 1:
---------


    G          Dm            Am         C             Em         Dm
||--3----3-----1----1-----|--0----0-----3----3-----|--0----0-----1----1-----|
||--3----3-----3----3-----|--1----1-----1----1-----|--0----0--0--3----3-----|
||--0----0--0--2----2--2--|--2----2--2--0----0--0--|--0----0-----2----2--2--|
||--0----0-----0----0-----|--2----2-----2----2-----|--2----2-----0----0-----|
||--2----2----------------|--0----0-----3----3-----|--2----2----------------|
||--3----3----------------|------------------------|--0----0----------------|
    Blank      page     was  all    the rage    never meant   to say  any-


   Am         C             G          Em            Dm         Am
|--0----0-----3----3-----|--3----3-----0----0-----|--1----1-----0----0-----||
|--1----1-----1----1-----|--3----3-----0----0-----|--3----3-----1----1-----||
|--2----2--2--0----0--0--|--0----0--0--0----0-----|--2----2--2--2----2--2--||
|--2----2-----2----2-----|--0----0-----2----2--2--|--0----0-----2----2-----||
|--0----0-----3----3-----|--2----2-----2----2-----|-------------0----0-----||
|------------------------|--3----3-----0----0-----|------------------------||
 -thing.   In bed    I was  half       dead tired of dream-     ing     of



---------
Guitar 2:
---------


||--3--------------1----|-(1)-------------------|-------3--3---------------|
||--3------------3------|---------1--------3----|-(3)---------3 b5 r3-3----|
||----------------------|-----------------------|------------------------2-|
||----------------------|-----------------------|--------------------------|
||----------------------|-----------------------|--------------------------|
||----------------------|-----------------------|--------------------------|


|-------------3----3----|--3----3----------------|------------------------||
|--1----1b3r1-----------|------------1-----1b3r1-|--1----1----1-1---1-1---||
|-----------------------|----------------0-------|------------------------||
|-----------------------|------------------------|------------------------||
|-----------------------|------------------------|------------------------||
|-----------------------|------------------------|------------------------||



================================================================================
Outro: Guitars 1 & 2                                      [ Time 04:09 - 04:58 ]
================================================================================


---------
Guitar 1:
---------


    C          Em            Am         Dm            Am        Dm
||--3----3-----0----0-----|--0----0-----1----1-----|--0----0----1----1-----|
||--1----1-----0----0--0--|--1----1-----3----3-----|--1----1----3----3-----|
||--0----0--0--0----0-----|--2----2--2--2----2--2--|--2----2----2----2--2--|
||--2----2-----2----2-----|--2----2-----0----0-----|--2----2----0----0-----|
||--3----3-----2----2-----|--0----0----------------|--0----0---------------|
||-------------0----0-----|------------------------|-----------------------|
 rest.   Got   dressed drove the state line  looking  for  you  at the five and


   G          Dm            Am         C             Em         Dm
|--3----3-----1----1-----|--0----0-----3----3-----|--0----0-----1----1-----|
|--3----3-----3----3-----|--1----1-----1----1-----|--0----0--0--3----3-----|
|--0----0--0--2----2--2--|--2----2--2--0----0--0--|--0----0-----2----2--2--|
|--0----0-----0----0-----|--2----2-----2----2-----|--2----2-----0----0-----|
|--2----2----------------|--0----0-----3----3-----|--2----2----------------|
|--3----3----------------|------------------------|--0----0----------------|
 dime.             But there I was         picking   pieces


   Am                     C          Em            Am         Dm
|--0----0----0----0----|--3----3-----0----0-----|--0----0-----1----1-----|
|--1----1----1----1----|--1----1-----0----0--0--|--1----1-----3----3-----|
|--2----2----2----2----|--0----0--0--0----0-----|--2----2--2--2----2--2--|
|--2----2----2----2----|--2----2-----2----2-----|--2----2-----0----0-----|
|--0----0----0----0----|--3----3-----2----2-----|--0----0----------------|
|----------------------|-------------0----0-----|------------------------|
   up.                     You are a ghost of my   indecision


   C          G             Am         Dm
|--3----3-----3----3-----|--0----0-----1----1-----||
|--1----1-----3----3-----|--1----1-----3----3-----||
|--0----0--0--0----0--0--|--2----2--2--2----2--2--||
|--2----2-----0----0-----|--2----2-----0----0-----||
|--3----3-----2----2-----|--0----0----------------||
|-------------3----3-----|------------------------||
   no more    little        girl.



---------
Guitar 2:
---------


||-------0----0--------|---------------1---0--|-------------1---1----|
||--1------------------|--R--        ---------|--1-------------------|
||---------------------|--E--        ---------|----------------------|
||---------------------|--S--        ---------|----------------------|
||---------------------|--T--        ---------|----------------------|
||---------------------|----------------------|----------------------|


|-----------------------|-----------3----3----|--3--------1--------|
|--3------------5b    6-|--5------------------|--------------------|
|-----------------------|---------------------|--------------------|
|-----------------------|---------------------|--------------------|
|-----------------------|---------------------|--------------------|
|-----------------------|---------------------|--------------------|


|--0----------------|--------------------|---------------------|
|-------------------|--5--------5--------|--5--------5b6r5b6   |
|-------------------|--------------------|---------------------|
|-------------------|--------------------|---------------------|
|-------------------|--------------------|---------------------|
|-------------------|--------------------|---------------------|


|--------------------------|----------------------||
|-----------3------5b6r5b6-|-(5)------------------||
|--5-----------------------|---------5------------||
|--------------------------|----------------------||
|--------------------------|----------------------||
|--------------------------|----------------------||



During the last 4 bars the song fades out; the final bar is barely audible.



================================================================================
End
================================================================================


Tab summary:        Part 1
                    Part 2
                    Part 3
                    Part 4
                    Part 5
                    Part 6
                    Outro

                    END
comments
We did not receive enough feedback on this tab! Please rate:
print report bad tab
1 2 3 4 5
1 comment total.
0 reply
paddyirishman wrote on December 28 2011, 08:57 pm

Here's a solo acoustic track exported from Guitar Pro 6 you can play along to:

http://tinyurl.com/sumpkins

Here's a "Karaoke" version which includes all of the instruments (exported from Guitar Pro 5 and rendered through sampled instruments on the website):

http://tinyurl.com/sumpkins-k

Who needs Tab Pro? ;)

I want to post or [tab]
guest
You may want to rate the tab now too:
select rating
Please do not post tabs as comments. Select "correction" instead!