Oops, an error
Loading. Please wait.

Bleeding The Orchid Tab

version 1
version 1

Whole song

Interactive

5,902 views 1 this week
3 commentsread comments
1 2 3 4 5
accurate
x 3
add to favorites
launch autoscroll
font size
0
reset
how to read this tab
guitar tuner
Tab Pro tools
  • play this tab
  • loop segment
  • change instrument
  • show fretboard
  • metronome
×
Best way to learn
"Bleeding The Orchid"
Autoscroll
slow
fast
+/-
esc
set tempo
stop
Contributor
Hey people! this is my interpretation for Bleeding the orchid, an amazing new song from 
Pumpkins last album "Zeitgeist"

Hope you like it ;)


Standard SP tuning (Eb)


Keyboard Intro: A F Em G


Pre-verse x2

e|-----------------------------------------------|
B|-----------------------------------------------|
G|-------6----------2----------0----------4------|
D|-----7---7------3---3------2---2------5---5----|
A|---7----------3----------2----------5----------|
E|-5----------1----------0----------3------------|


Verse x2 (you also can play by chord A F Em G F A F Em )

e|---------------------------------------------------------|
B|---------------------------------------------------------|
G|----6------2------0------4------2------2------2------0---|
D|---7-7----3-3----2-2----5-5----3-3----3-3----3-3----2-2--|
A|--7------3------2------5------3------3------3------2-----|
E|-5------1------0------3------1------5------1------0------|


Pre-chorus

Strum
C F G F
C F G   G


Chorus

Same as Pre-verse

A F Em G x3
A F

Then Start the first solo

2º guitar plays A F Em G

Play this x2

e|-----------------------------------------|
B|-----------------------------------------|
G|-----------------------------------------|
D|-----------------------------------------|
A|----5/7--5h7/8----7h8/10-----8h10/12-----|
E|-----------------------------------------|


Verse 2  x 2

A F Em G
F A F Em

Pre-verse x2

C F G F

Chorus 2
A F Em G---x3
A F


Interlude

(F) Dm C ---Keyboard

Guitar enter- (Not sure about the F chord)

Em Dm C F

Lead

e|--------------------------------------------------|
B|--------------------------------------------------|
G|---------------------------------3---2------------|
D|----------------------7--5--5h7----------3----2---|
A|---7~-/5h7h8h7--7--5------------------------------|
E|--------------------------------------------------|

The strum Em


Chorus 3

A F Em G x4

Outro

F Dm A C
F Dm A
F Dm A C
F Dm

Start the final solo

The solo start like the mini solo i write up the page,

A F Em G

F Dm A C
F Dm A
F Dm A C
F Dm A

end on F
comments
We did not receive enough feedback on this tab! Please rate:
print report bad tab
1 2 3 4 5
3 comments total.
0 reply
s-fury wrote on July 16 2007, 05:23 pm

i think this is close but not great. No tabbed solo at end? i think the first solo don't have so many hammer ons. i think it looks more like this.
e|-----------------------------------------|
B|-----------------------------------------|
G|-----------------------------------------|
D|-----------------------------------------|
A|----5/7--7/8----8/10-----8h10/12\--------|
E|-----------------------------------------|
then
e|-----------------------------------------|
B|-----------------------------------------|
G|-----------------------------------------|
D|-----------------------------------------|
A|----5/7--7/8----8/10-----8h10/12brbr-----|
E|-----------------------------------------|

0 reply
musesp wrote on July 19 2007, 08:52 pm

I tabbed the song listen to the Rex (1º Paris show) version, but for me sound ok. Anyway, thanks for your comment.

0 reply
s-fury wrote on August 20 2007, 02:14 pm

actually:

e|-----------------------------------------|
B|-----------------------------------------|
G|-----------------------------------------|
D|-----------------------------------------|
A|----4/6--6/7----7/9-----7h9/11\--------|
E|-----------------------------------------| sounds better

I want to post or [tab]
guest
You may want to rate the tab now too:
select rating
Please do not post tabs as comments. Select "correction" instead!