Oops, an error
Loading. Please wait.

Bodies bass

version 4
version 4

Whole song

Interactive

247 views 1 this week
no commentswrite comment
1 2 3 4 5
3 more votes to show rating
add to favorites
×
Save as Personal and add changes to this tab that will be seen only by you. Learn more ›
×
You can save this tab as Personal to edit and correct it or add notes. All changes will be seen only by you. Learn more »
launch autoscroll
font size
0
reset
guitar tuner
edit
Autoscroll
slow
fast
+/-
esc
set tempo
stop
================================================================================
                       S M A S H I N G   P U M P K I N S

                                       -

                                  B O D I E S
================================================================================


                      MELLON COLLIE & THE INFINITE SADNESS
                            (c) Virgin Records (1995)
                        http://www.smashingpumpkins.com/


                    Tune Down a 1/2 Step, then Drop D (to C#)
                                   C# G# C# G

                                 Tempo = 110 BPM
                               Time Signature = 4/4



                          -----------------------------
                                 Transcribed by

                                 PADDY MCMULLAN
                           pmtabs (@t) gmail [dot] com

                                   Version 1.0
                                19th August 2012
                             -----------------------

                             Tablature Symbols Used:


 (/)       -  Legato Slide (Blank space indicates length of slide)
 \         -  Slide Down to/Down From (Blank space indicates length of slide)
 /         -  Slide Up To/Up From (Blank space indicates length of slide)
 ( )       -  Ghost Note/Tied Note/Implied Note



================================================================================
Rest for 4 bars (feedback effects)                        [ Time 00:00 - 00:09 ]
================================================================================

================================================================================
Part 1:                                                   [ Time 00:09 - 00:45 ]
================================================================================


||-----------------------------------|-----------------------------------| |
||-----------------------------------|-----------------------------------|*|
||-----------------------------------|-----------------------------------|*| x 8
||--3-3-0-0-3-3-0-0-3-3-0-0-3-3-3-3/ |--7-7-7-7-7-7-7-7\ 2-2-0-0-2-2-0-0-| |



Cast the pearls aside
Of a simple life of need
Come into my life
Forever



================================================================================
Part 2:                                                   [ Time 00:45 - 01:02 ]
================================================================================


||---------------------------------|--------------------------------| |
||---------------------------------|--------------------------------|*|
||---------------------------------|--------------------------------|*| x 4
||--2-2-2-0-2-2-2-0-2-2-2-0-2--2-2-|--0-0-0-0-0--0--5-5-5-0-5-5-5-0-| |



The crumbled cities stand as known
Of the sights you have been shown
of the hurt you call your own
Your own your own



================================================================================
Part 3: Repeat Part 1                                     [ Time 01:02 - 01:20 ]
================================================================================


Love is suicide
Love is suicide
Love is suicide
Love is suicide



================================================================================
Part 4:                                                   [ Time 01:20 - 01:38 ]
================================================================================


||-----------------------------------|-----------------------------------| |
||-----------------------------------|-----------------------------------|*|
||-----------------------------------|-----------------------------------|*| x 4
||--5-5-0-0-5-5-0-0-5-5-0-0-5-5-5-5\-|--3-3-0-0-3-3-3-3/-7-7-7-7-7-7-7-7-| |



The empty bodies stand at rest
Casualties of their own flesh
Afflicted by their dispossession



================================================================================
Part 5:                                                   [ Time 01:38 - 01:56 ]
================================================================================



||---------------------------------------------|
||---------------------------------------------|
||---------------------------------------------|
||--10--10-10-10-10-10-10-10--10-10-10-10-10\ -|


|---------------------------------| |
|---------------------------------|*|
|---------------------------------|*| x 4
|--0--0-0-0-0-0-0-3--3-3-3-3-3-3/ | |



But no bodies ever knew
Nobody's
No bodies felt like you
Nobody's



================================================================================
Part 6:                                                   [ Time 01:56 - 02:15 ]
================================================================================


  //              Fade out              \\
||-------------------|-------------------||
||-------------------|-------------------||
||-------------------|-------------------||
||--3----------------|--(3)--------------||


Rest for 6 bars



Love is suicide
Love is suicide
Love is suicide
Love is...
Oh



================================================================================
Part 7: Repeat Part 1                                    [ Time 02:15 - 02:32 ]
================================================================================


Now we drive the night
To the ironies of peace
You can't help deny
Forever



================================================================================
Part 8: Repeat Part 2                                     [ Time 02:32 - 02:50 ]
================================================================================


The tragedies reside in you
The secret sights hide in you
The lonely nights divide you in two
In two in two



================================================================================
Part 9: Repeat Part 4                                    [ Time 02:50 - 03:08 ]
================================================================================


All my blisters now revealed
In the darkness of my dreams
In the spaces in between us



================================================================================
Part 10: Repeat Part 5 twice                              [ Time 03:08 - 03:43 ]
================================================================================


But no bodies ever knew
Nobody's
No bodies felt like you
Nobody's


No bodies ever knew
Nobody's
No bodies felt like you
Nobody's



================================================================================
Part 11: Repeat Part 1                                    [ Time 03:43 - 04:12 ]
================================================================================


||-------------------|-------------------|--------------------||
||-------------------|-------------------|--------------------||
||-------------------|-------------------|--------------------||
||--0----------------|--(0)--------------|--(0)------0--------||



Love is suicide
Love is suicide
Love is suicide
Love is suicide



================================================================================
End
================================================================================


Tab summary:        Part 1
                    Part 2
                    Part 3
                    Part 4
                    Part 5
                    Part 6
                    Part 7
                    Part 8
                    Part 9
                    Part 10
                    Part 11

                    END

            
            
Suggest correction
Creating personal tab
Creating personal tab
You can edit any tab online and save it as your Personal.

You can edit, replace or remove any tab part or add personal notes – all changes will be seen only by you.

Personal tabs can be accessed anytime from any device, even offline.
Learn more »
Give kudos to tab author, rate the tab!
1 2 3 4 5
comments
print report bad tab
guest
You may want to rate the tab now too:
select rating
Wanna post a correction for this tab? Suggest correction