Oops, an error
Loading. Please wait.
We have an official Bullet With Butterfly Wings tab made by UG professional guitarists. Check out the tab »
×
9,616 views 261 this week
no commentswrite comment
1 2 3 4 5
x 8
add to favorites
×
Save as Personal and add changes to this tab that will be seen only by you. Learn more ›
×
You can save this tab as Personal to edit and correct it or add notes. All changes will be seen only by you. Learn more »
launch autoscroll
font size
0
reset
how to read this tab
guitar tuner
backing track
0:00
0:00
edit
Autoscroll
slow
fast
+/-
esc
set tempo
stop
Author
                           BULLET WITH BUTTERFLY WINGS
                      As recorded by The Smashing Pumpkins
          (From the 1995 Album MELLON COLLIE AND THE INFINITE SADNESS)

Words and Music by Billy Corgan
Transcribed by www.mikesguitarsite.co.uk

Gtr I (Eb Ab Db Gb Bb Eb) - 'Billy Corgan - Rhythm clean electric'
Gtr II (Eb Ab Db Gb Bb Eb) - 'Billy Corgan - Rhythm w/dist (Gtr I)'
Gtr III (Eb Ab Db Gb Bb Eb) - 'James Iha - Rhythm clean electric'
Gtr IV (Eb Ab Db Gb Bb Eb) - 'James Iha - Rhythm w/dist (Gtr III)'
Gtr V (Eb Ab Db Gb Bb Eb) - 'James Iha - Lead w/dist & wah'

 Intro           Verse 1
  Q=120
 4/4
  Gtr I
                                                        7x
|--||---------||------------------|---------------------||
|--||---------||o-0-0-0-0-0-------|---------0-0-0-0-0--o||
|--||---------||--4-4-4-4-4-------|---------4-4-4-4-4---||
|--||---------||--4-4-4-4-4-4-4-4-|-4-4-4-4-4-4-4-4-4---||
|--||---------||o-2-2-0-2-2-2-2-2-|-2-2-2-2-0-0-0-0-0--o||
|--||---------||------------3-3-0-|-0-0-0-0-------------||


   Pre-Chorus
                                         4x
||------------------|--------------------||------------------|
||o-0-0-0-----------|---------0-0-0-0-0-o||-0-0-0------------|
||--4-4-4-----------|---------4-4-4-4-4--||-4-4-4------------|
||--4-4-4-4-4-4-4-4-|-4-4-4-4-4-4-4-4-4--||-4-4-4-4-4-4-4-4--|
||o-2-2-2-2-2-2-2-2-|-2-2-2-2-0-0-0-0-0-o||-2-2-2-2-2-2-2-0--|
||--------0-0-0-0-3-|-3-3-3-3------------||-------0-0-0-0----|


                      Chorus
          Gtr II
                                                ~
|------------------||---------------|------------------|------------------||
|-0-0-0-0----------||o--------3--3--|--3----3----------|--------3-(3)----o||
|-4-4-4-4----------||--4--4---0--0--|--2----2---2--2---|-/9\----0-(0)-----||
|-4-4-4-4--4-4-4-4-||--4--4-0-0--0--|--0----0----------|-/9\----0-(0)-----||
|-0-0-0-0--0-0-0-0-||o-2--2-0-------|-(0)--(0)---------|-/7\-------------o||
|------------------||---------3--3--|----------------0-|------0-3-(3)-----||
|
| Gtr IV
|                                                                  ~~~
|------------------||---------------|------------------|------------------||
|------------------||o--------3--3--|------------------|-----------------o||
|------------------||--4--4---0--0--|------------------|--9\--------------||
|----------4---4---||--4--4-0-0--0--|--7----7----------|--9\--x-5-(5)-----||
|----------0---0---||o-2--2-0-------|--5----5---7--7---|--7\--x----------o||
|------------------||---------3--3--|-----------5--5---|------------------||


                             ~
||---------------|------------------|------------------||
||o--------3--3--|--3----3----------|--------3-(3)----o||
||--4--4---0--0--|--2----2---2--2---|-/9\----0-(0)-----||
||--4--4-0-0--0--|--0----0----------|-/9\----0-(0)-----||
||o-2--2-0-------|-(0)--(0)---------|-----------------o||
||---------3--3--|----------------0-|------0-3-(3)-----||
|
|                                          PM   ~~~
||---------------|------------------|------------------||
||o--------3--3--|------------------|-----------------o||
||--4--4---0--0--|------------------|--9\--------------||
||--4--4-0-0--0--|--7----7----------|--9\--x-5-(5)-----||
||o-2--2-0-------|--5----5---7--7---|--7\--x----------o||
||---------3--3--|-----------5--5---|------------------||


 2/4       4/4
|---------|------------|------------------------||
|---------|------------|------------------------||
|-------2-|-(2)--------|-(2)--------------------||
|-------2-|-(2)--------|-(2)--------------------||
|-------0-|-(0)--------|-(0)--------------------||
|-2-0-2---|------------|------------------------||
|
|            ~~~
|---------|------------|------------------------||
|---------|------------|------------------------||
|---------|------------|------------------------||
|---------|------------|------------------------||
|---------|------------|------------------------||
|-2-0-2-5-|-(5)--------|-(5)b6===(5)--(5)r=(5)--||


   Verse 2
    Gtr I
                                         3x
||------------------|--------------------||-----------------|-----------------|
||o-0-0-0-0---------|-------------0-0-0-o||-0-0-0-0-0-------|---------0-0-0-0-|
||--4-4-4-4---------|---------4---4-4-4--||-4-4-4-4-4-------|---------4-4-4-4-|
||--4-4-4-4-4-4-4-4-|-4-4-4-4-4-4-4-4-4--||-4-4-4-4-4-4-4-4-|---------4-4-4-4-|
||o-2-2-0-2-2-2-2-2-|-2-2-2-2-0-0-0-0-0-o||-2-2-0-2-2-2-2-2-|-2-2-2-2-0-0-0-0-|
||------------3-3-0-|-0-0-0-0------------||-----------3-3-0-|-0-0-0-0---------|


    Gtr III
||-------0---------0------|--------0------------------||
||o--0-0----0--(0)------0-|--(0)---------------------o||
||--14-----12-(12)-----11-|-(11)-------12h14----------||
||------------------------|------------------12h14----||
||o-----------------------|--------------------------o||
||------------------------|---------------------------||
|
|   Gtr I
||------------------------|---------------------------||
||o--0-0-0--0---0---------|-------------0--0--0--0-0-o||
||---4-4-4--4---4---------|-------------4--4--4--4-4--||
||---4-4-4--4---4--4-4--4-|---4--4-4-4--4--4--4--4-4--||
||o--2-2-0--2---2--2-2--2-|---2--2-2-2--0--0--0--0-0-o||
||-----------------3-3--0-|---0--0-0-0----------------||


|------0---------0------|--------0------------------||
|--0-0----0--(0)------0-|--(0)----------------------||
|-14-----12-(12)-----11-|-(11)-------12h14----------||
|-----------------------|------------------12h14----||
|-----------------------|---------------------------||
|-----------------------|---------------------------||
|
|-----------------------|---------------------------||
|--0-0-0--0---0---------|-------------0--0--0--0-0--||
|--4-4-4--4---4---------|-------------4--4--4--4-4--||
|--4-4-4--4---4--4-4--4-|---4--4-4-4--4--4--4--4-4--||
|--2-2-0--2---2--2-2--2-|---2--2-2-2--0--0--0--0-0--||
|----------------3-3--0-|---0--0-0-0----------------||


   Pre-Chorus
    Gtr IV
||------------------|-------------------|
||o-0-0-0-0-0-0-0-0-|-0-0-0-0-0-0-0-0---|
||--4-4-4-4-4-4-4-4-|-4-4-4-4-4-4-4-4---|
||------------------|-------------------|
||o-----------------|-------------------|
||------------------|-------------------|
|
||------------------|-------------------|
||o-0-0-0-----------|---------0-0-0-0-0-|
||--4-4-4-----------|---------4-4-4-4-4-|
||--4-4-4-4-4-4-4-4-|-4-4-4-4-4-4-4-4-4-|
||o-2-2-2-2-2-2-2-2-|-2-2-2-2-0-0-0-0-0-|
||--------0-0-0-0-3-|-3-3-3-3-----------|


|-----------------|---------------------||
|-0-0-0-0-0-0-0-0-|-0-0-0-0-0-0-0-0----o||
|-4-4-4-4-4-4-4-4-|-4-4-4-4-4-4-4-4-----||
|-----------------|---------------------||
|-----------------|--------------------o||
|-----------------|---------------------||
|
|-----------------|---------------------||
|-0-0-0-----------|---------0-0-0-0-0--o||
|-4-4-4-----------|---------4-4-4-4-4---||
|-4-4-4-4-4-4-4-4-|-4-4-4-4-4-4-4-4-4---||
|-2-2-2-2-2-2-2-2-|-2-2-2-2-0-0-0-0-0--o||
|-------0-0-0-0-3-|-3-3-3-3-------------||


                                     Chorus
                                  Gtrs II, IV
|-----------------|---------------||---------------|
|-0-0-0-0-0-0-0-0-|-0-0-0-0-------||o--------3--3--|
|-4-4-4-4-4-4-4-4-|-4-4-4-4-4--4--||--4--4---0--0--|
|-----------------|---------4--4--||--4--4---0--0--|
|-----------------|---------0--0--||o-2--2-0-------|
|-----------------|---------------||---------3--3--|


|-------------|--------------------||
|-3--3--------|--------3-(3)--3---o||
|-2--2--2--2--|-9------0-(0)--0----||
|-0--0--2--2--|-9------0-(0)--0----||
|-------0--0--|-7---------------0-o||
|-------------|----(0)-3-(3)--3----||


|--------------|-------------|-------------------|
|--------3--3--|-3--3--------|---------3-(3)-----|
|-4--4---0--0--|-2--2--2--2--|-9\------0-(0)-----|
|-4--4---0--0--|-0--0--2--2--|-9\------0-(0)--4--|
|-2--2-0-------|-------0--0--|-7\-------------0--|
|--------3--3--|-------------|-----(0)-3-(3)-----|


|--------------|--------------||
|--------3--3--|-3--3---------||
|-4------0--0--|-2--2--2------||
|-4--4---0--0--|-0--0--2------||
|-2--2---------|-------0--0-0-||
|------0-3--3--|--------------||


 Interlude
  Gtr II
                ~~~                  ~~~
|--------------------|-------------------|
|-------------/12----|-------------------|
|--------------------|-------------/16---|
|--------------------|-------------------|
|--------------------|-------------------|
|--------------------|-------------------|
|
| Gtr IV
|--------------------|-------------------|
|--------------------|-------------------|
|--------------------|-------------------|
|--------------------|-------------------|
|-6-6-6-9-(9)-----6--|-4-----7-(7)-------|
|-4-4-4-7-(7)-----4--|-2-0-0-5-(5)-------|


                ~~~
|--------------------|-----------------------------|
|-------------/12----|-------------14b16==(14)rs19-|
|--------------------|-----------------------------|
|--------------------|-----------------------------|
|--------------------|-----------------------------|
|--------------------|-----------------------------|
|
|--------------------|-----------------------------|
|--------------------|-----------------------------|
|--------------------|-----------------------------|
|--------------------|-----------------------------|
|-6-6-6-9-(9)-----6--|-4-----7-(7)-----------------|
|-4-4-4-7-(7)-----4--|-2-0-0-5-(5)-----------------|


                ~~~                  ~~~
|--------------------|-------------------|
|-------------/12----|-------------------|
|--------------------|-------------/16---|
|--------------------|-------------------|
|--------------------|-------------------|
|--------------------|-------------------|
|
|--------------------|-------------------|
|--------------------|-------------------|
|--------------------|-------------------|
|--------------------|-------------------|
|-6-6-6-9-(9)-----6--|-4-----7-(7)-------|
|-4-4-4-7-(7)-----4--|-2-0-0-5-(5)-------|


                ~~~
|-------------------|-----------------------||
|-------------/12---|-----------14b15=======||
|-------------------|-----------------------||
|-------------------|-----------------------||
|-------------------|-----------------------||
|-------------------|-----------------------||
|
|-------------------|-----------------------||
|-------------------|-----------------------||
|-------------------|-----------------------||
|-------------------|-----------------------||
|-6-6-6-9-(9)-------|-4---7-(7)-------------||
|-4-4-4-7-(7)-------|-2---5-(5)--------12\--||


   Bridge
||--------------------------|----------------|--------------|-----------------||
||o-(14)b17======(14)r------|----------------|--------------|----------------o||
||--------------------------|----------------|--------------|-----------------||
||--------------------------|----------------|--------------|-----------------||
||o-------------------------|----------------|--------------|----------------o||
||----------------------x\--|----------------|--------------|-----------------||
|
|                                   ~~~~~~                          ~~~~~~
||--------------------------|----------------|--------------|-----------------||
||o-------------------------|----------------|--------------|----------------o||
||----9---------------------|----------------|-9------------|-----------------||
||----9---------------------|----------------|-9------------|-----------------||
||o---7--------5--(5)-------|-4-----7-(7)----|-7---5-(5)----|-4-----7-(7)----o||
||----0--------3--(3)-------|-2-0-0-5-(5)----|-0---3-(3)----|-2-0-0-5-(5)-----||


  Gtr IV
                       ~~~~~~
|--------------|----------------|----------------|
|--------------|----------------|----------------|
|-9------------|----------------|-9--------------|
|-9------------|----------------|-9--------------|
|-7---5-(5)----|-4-----7-(7)----|-7-----5-(5)----|
|-0---3-(3)----|-2-0-0-5-(5)----|-0-0-0-3-(3)----|


|-----------------|-----------------||
|-----------------|-----------------||
|-----------------|-----------------||
|-4-4-4-4-4-4-4-4-|-4-4-4-4-4-4-4-4-||
|-4-4-4-4-4-4-4-4-|-4-4-4-4-4-4-4-4-||
|-2-2-2-2-2-2-2-2-|-2-2-2-2-2-2-2-2-||


 Chorus / Breakdown
  Gtr I
|-----------------|-----------------|-------------------|
|-----0-------3---|-----3-------0---|-----0---------0---|
|-----4-0-------0-|-2-2---0-------2-|-----------------0-|
|---4-------0-----|-0---------2-----|---2---------0-----|
|-2---------------|---------0-------|-2-----------------|
|---------3-------|-----------------|-0-----3-(3)-------|


|-----------------|----------------|---------------------|
|-----0-------3---|-----3-------0--|------0----------0---|
|-------0-------0-|---2---0--------|-----(0)---------0-0-|
|---4-------0-----|-0---------2----|---2-----------0-----|
|-2---------------|---------0------|---------------------|
|---------3-------|----------------|-0-------3-(3)-------|


  Gtr III
|----------------|-----------------|-------------------|------------------|
|-10------8------|-7-------8p7-----|-------------------|-10-------8-------|
|----------------|-------------9---|-7s9-----(9)-------|------------------|
|----------------|-----------------|-------------------|------------------|
|----------------|-----------------|-------------------|------------------|
|----------------|-----------------|-------------------|------------------|
|
| Gtr I
|-----0------0---|-----0-------0---|-----0-------------|------0-------0---|
|-----0------3---|-----3-------0---|-----0---------0---|------0-------0---|
|-------0------0-|---2---0-------0-|-----------------0-|--------0-------0-|
|----------------|-0---------2-----|---2---------0-----|----4-------0-----|
|--2-------------|---------0-------|-------------------|--2---------------|
|---------3------|-----------------|-0-----3-(3)-------|----------3-------|


                                       Chorus
                  Gtr IV
                          ~~~~~~
|-----------------|------------------||---------------|---------------|
|-7-------8-7-----|------------------||--------3------|---------------|
|-------------9---|------------------||-4--4---0--0---|-7--7--2-2-2-3-|
|-----------------|------------------||-4--4---0--0-5-|-7--7--2-2-2-3-|
|-----------------|--------------0-0-||-2--2-0------4-|-5--5--0-0-0-1-|
|-----------------|-0-----3-(3)------||--------3--3---|-5--5----------|
|
|                 Gtr II
|-----0-------0---|------------------||---------------|---------------|
|-----3-------0---|------------------||--------3--3---|-3--3----------|
|---2---0-------0-|-9\----0-(0)--0---||-4--4---0--0---|-2--2--2---2---|
|-0---------2-----|-9\----0-(0)--0---||-4--4-0-0--0---|-0--0--2---2-3-|
|---------0-------|-7\---------------||-2--2-0--------|-0--0--0---0-1-|
|-----------------|-----0-3-(3)------||--------3--3---|---------------|


    Gtrs II, IV
||----------------|----------------||---------------|----------------||
||o--------3------|---------------o||--------3------|----------------||
||--4--4---0--0---|-7--7--2-2-2-3--||-4--4---0--0---|-7--7--2-2-2-3--||
||--4--4---0--0-6-|-7--7--2-2-2-3--||-4--4---0--0-6-|-7--7--2-2-2-3--||
||o-2--2-0------4-|-5--5--0-0-0-1-o||-2--2-0------4-|-5--5--0-0-0-1--||
||---------3--3---|-5--5-----------||--------3--3---|-5--5-----------||


    Gtr V
||------------------|-------------------||
||o-----------------|------------------o||
||--2h4--4---4--4---|-2h4-4--2h4---2----||
||------------------|-------------------||
||o-----------------|------------------o||
||------------------|-------------------||
|
|   Gtrs II, IV
||------------------|-------------------||
||o----------3------|------------------o||
||----4--4---0--0---|-7---7----2-2-2-3--||
||----4--4---0--0-6-|-7---7----2-2-2-3--||
||o---2--2-0------4-|-5---5----0-0-0-1-o||
||-----------3--3---|-5---5-------------||


|-----------------|---------------------|
|-----------------|---------------------|
|-2h4-4---2h4-4---|-2h4-4--4b6r(4)-2----|
|-----------------|---------------------|
|-----------------|---------------------|
|-----------------|---------------------|
|
|-----------------|---------------------|
|---------3-------|---------------------|
|-4---4---0---0---|-7---7--2----2--2-3--|
|-4---4---0---0-6-|-7---7--2----2--2-3--|
|-2---2-0-------4-|-5---5--0----0--0-1--|
|---------3---3---|-5---5---------------|


|-----------------|-----------------------|
|-----------------|--------------------10-|
|-2h4-4---2h4-4---|-2h4-4--4b6r(4)---2----|
|-----------------|-----------------------|
|-----------------|-----------------------|
|-----------------|-----------------------|
|
|-----------------|-----------------------|
|---------3-------|-----------------------|
|-4---4---0---0---|-7---7--2-------2-2--3-|
|-4---4---0---0-6-|-7---7--2-------2-2--3-|
|-2---2-0-------4-|-5---5--0-------0-0--1-|
|---------3---3---|-5---5-----------------|


|------------------------|--------------------------------|
|-10h12--12---10h12-12---|-10h12-12b14===(12)r-12---10----|
|------------------------|--------------------------------|
|------------------------|--------------------------------|
|------------------------|--------------------------------|
|------------------------|--------------------------------|
|
|------------------------|--------------------------------|
|--------------3---------|--------------------------------|
|-----4---4----0-----0---|--7-----7-------------2-2--2-3--|
|-----4---4----0-----0-6-|--7-----7-------------2-2--2-3--|
|-----2---2-0----------4-|--5-----5-------------0-0--0-1--|
|--------------3-----3---|--5-----5-----------------------|


|------------------------|-------------------------------|
|-10h12--12---10h12-12---|-10h12-12b14===(12)r-12---10---|
|------------------------|-------------------------------|
|------------------------|-------------------------------|
|------------------------|-------------------------------|
|------------------------|-------------------------------|
|
|------------------------|-------------------------------|
|--------------3---------|-------------------------------|
|-----4---4----0-----0---|--7-----7-------------2-2--2-3-|
|-----4---4----0-----0-6-|--7-----7-------------2-2--2-3-|
|-----2---2-0----------4-|--5-----5-------------0-0--0-1-|
|--------------3-----3---|--5-----5----------------------|


|---------------------|-------------------|
|-10h12-12-10-10--8---|-7h8-8p7-7s5-3-----|
|---------------------|-------------------|
|---------------------|-------------------|
|---------------------|-------------------|
|---------------------|-------------------|
|
|---------------------|-------------------|
|--------------3------|-------------------|
|--4-----4-----0--0---|-7---7---2-2-2-3---|
|--4-----4-----0--0-6-|-7---7---2-2-2-3---|
|--2-----2--0-------4-|-5---5---0-0-0-1---|
|--------------3--3---|-5---5-------------|


|---------------------|----------------|
|-5b7===(5)r---5p=3p2-|-3p2p==0--------|
|---------------------|---------2/-----|
|---------------------|----------------|
|---------------------|----------------|
|---------------------|----------------|
|
|---------------------|----------------|
|--------------3--0---|-3---3----------|
|-4------4-----0--0---|-2---2---2------|
|-4------4---0-0--0---|-0---0---2------|
|-2------2---0--------|-0---0---0---8--|
|--------------3------|----------------|


                     ~~~~
|--------------------------|----------------*|
|--------------------------|----------------*|
|-14b16r(14)-12------------|-11-------------*|
|---------------14-(14)----|----------------*|
|--------------------------|----------------*|
|--------------------------|----------------*|
|
|--------------------------|----------------*|
|----------------3--(3)----|----------------*|
|--9\------------0--(0)----|----------------*|
|--9\------------0--(0)----|----------------*|
|--7\-----0----------------|--4----(4)s=3s2-*|
|-------------0--3--(3)----|--2----(2)s=1s0-*|


Tablature Legend
----------------
 h   - hammer-on
 p   - pull-off
 b   - bend
 pb  - pre-bend
 r   - bend release (if no number after the r, then release immediately)
 /\  - slide into or out of (from/to "nowhere")
 s   - legato slide
 S   - shift slide
  - natural harmonic
[n]  - artificial harmonic
n(n) - tapped harmonic
 ~   - vibrato
 tr  - trill
 T   - tap
 TP  - trem. picking
 PM  - palm muting
\n/  - tremolo bar dip; n = amount to dip
 \n  - tremolo bar down
 n/  - tremolo bar up
/n\  - tremolo bar inverted dip
 =   - hold bend; also acts as connecting device for hammers/pulls
 <>  - volume swell (louder/softer)
 x   - on rhythm slash represents muted slash
 o   - on rhythm slash represents single note slash

Misc Legend
-----------
 |  - bar
||  - double bar
||o - repeat start
o|| - repeat end
*|  - double bar (ending)
 :  - bar (freetime)
 $  - Segno
 &  - Coda
Tempo markers -  = BPM(8/16=s8/s16), where s8 = swing 8ths, s16 = swing 16ths


***************************************************************************************
* Generated using Power Tab Editor by Brad Larsen - http://powertab.guitarnetwork.org *
***************************************************************************************

            
            
Suggest correction
Creating personal tab
Creating personal tab
You can edit any tab online and save it as your Personal.

You can edit, replace or remove any tab part or add personal notes – all changes will be seen only by you.

Personal tabs can be accessed anytime from any device, even offline.
Learn more »
comments
print report bad tab
guest
You may want to rate the tab now too:
select rating
Wanna post a correction for this tab? Suggest correction