Oops, an error
Loading. Please wait.
We have an official Bullet With Butterfly Wings tab made by UG professional guitarists. Check out the tab »
×
133 views 1 this week
no commentswrite comment
1 2 3 4 5
1 last vote to show rating
add to favorites
×
Save as Personal and add changes to this tab that will be seen only by you. Learn more ›
×
You can save this tab as Personal to edit and correct it or add notes. All changes will be seen only by you. Learn more »
launch autoscroll
font size
0
reset
guitar tuner
backing track
0:00
0:00
edit
Autoscroll
slow
fast
+/-
esc
set tempo
stop
Transcribed from Rocksmith. Video here if you like https://www.youtube.com/watch?v=n9LrX4TAvX0
Don't play the notes in parenthesis. Those are just where the slides stop.



[Verse]

Gb|----------------------------------------------|
Db|----------------------------------------------|
Ab|----------------------------------------------|
Eb|-7--7--5--7-\-3--3--0--0--0--0--0--5--5--5--6-|

Gb|------------------------------------------------|
Db|------------------------------------------------|
Ab|------------------------------------------------|
Eb|-7--7--5--7--7--3--3--0--0--0--0--0--5--5--5--6-|

Gb|----------------------------------------------|
Db|----------------------------------------------|
Ab|----------------------------------------------|
Eb|-7--7--5--7-\-3--3--0--0--0--0--0--5--5--5--6-|

Gb|------------------------------------------------|
Db|------------------------------------------------|
Ab|------------------------------------------------|
Eb|-7--7--5--7--7--3--3--0--0--0--0--0--5--5--5--6-|

Gb|------------------------------------------------|
Db|------------------------------------------------|
Ab|------------------------------------------------|
Eb|-7--7--5--7--7--3--3--0--0--0--0--0--5--5--5--6-|

Gb|------------------------------------------------|
Db|------------------------------------------------|
Ab|------------------------------------------------|
Eb|-7--7--5--7--7--3--3--0--0--0--0--0--5--5--5--6-|

Gb|----------------------------------------------|
Db|----------------------------------------------|
Ab|----------------------------------------------|
Eb|-7--7--5--7-\-3--3--0--0--0--0--0--5--5--5--6-|

[Pre-Chorus]

Gb|-------------------------------------------------|
Db|-------------------------------------------------|
Ab|-------------------------------------------------|
Eb|-7--7--7--0--0--0--0--3--3--3--3--3-/-5--5--5--5-|

Gb|-------------------------------------------------|
Db|-------------------------------------------------|
Ab|-------------------------------------------------|
Eb|-7--7--7--0--0--0--0--3--3--3--3--3--5--5--5--5-/|

Gb|-------------------------------------------------|
Db|-------------------------------------------------|
Ab|-------------------------------------------------|
Eb|-7--7--7--0--0--0--0--3--3--3--3--3--5--5--5--5-/|

Gb|-------------------------------------------------|
Db|-------------------------------------------------|
Ab|-------------------------------------------------|
Eb|-7--7--7--0--0--0--0--3--3--3--3--3--5--5--5--5-/|

Gb|----------------------------------------|
Db|----------------------------------------|
Ab|----------------------------------------|
Eb|-7--7--7-\-3--3--3--3--5-5-5-5-5-5-5-5-/|

[Chorus]

Gb|-----------------------------------------------------------------------|
Db|-----------------------------------------------------------------------|
Ab|-----------------------------------------------------------------------|
Eb|-7--7--7-5-3--3--3-/-(9)-10--10--10-\-5--5--5--5-/-(12)-\-0--3---3-3/5-|

Gb|-----------------------------------------------------------------------|
Db|-----------------------------------------------------------------------|
Ab|-----------------------------------------------------------------------|
Eb|-7--7--7-5-3--3--3-/-(9)-10--10--10-\-5--5--5--5-/-(12)-\-0--3---3-3/5-|

Gb|-----------------------------------------------------------------------|
Db|-----------------------------------------------------------------------|
Ab|-----------------------------------------------------------------------|
Eb|-7--7--7-5-3--3--3-/-(9)-10--10--10-\-5--5--5--5-/-(12)-\-0--3---3-3/5-|

Gb|-----------------------------------------------------------------------|
Db|-----------------------------------------------------------------------|
Ab|-----------------------------------------------------------------------|
Eb|-7--7--7-5-3--3--3-/-(9)-10--10--10-\-5--5--5--5-/-(12)-\-0--3---3-3-3-|

Gb|-------------------------------------------|
Db|-------------------------------------------|
Ab|-------------------------------------------|
Eb|-2--2--2-/-5-5-5-5-5-5-5-5-5-5-5-5-5-5-5-5-|

[Verse]

Gb|----------------------------------------------|
Db|----------------------------------------------|
Ab|----------------------------------------------|
Eb|-7--7--5--7-\-3--3--0--0--0--0--0--5--5--5--6-|

Gb|----------------------------------------------|
Db|----------------------------------------------|
Ab|----------------------------------------------|
Eb|-7--7--5--7-\-3--3--0--0--0--0--0--5--5--5--6-|

Gb|----------------------------------------------|
Db|----------------------------------------------|
Ab|----------------------------------------------|
Eb|-7--7--5--7-\-3--3--0--0--0--0--0--5--5--5--6-|

Gb|----------------------------------------------|
Db|----------------------------------------------|
Ab|----------------------------------------------|
Eb|-7--7--5--7-\-3--3--0--0--0--0--0--5--5--5--6-|

Gb|----------------------------------------------|
Db|----------------------------------------------|
Ab|----------------------------------------------|
Eb|-7--7--5--7-\-3--3--0--0--0--0--0--5--5--5--6-|

Gb|----------------------------------------------|
Db|----------------------------------------------|
Ab|----------------------------------------------|
Eb|-7--7--5--7-\-3--3--0--0--0--0--0--5--5--5--6-|

Gb|----------------------------------------------|
Db|----------------------------------------------|
Ab|----------------------------------------------|
Eb|-7--7--5--7-\-3--3--0--0--0--0--0--5--5--5--6-|

[Pre-Chorus]

Gb|------------------------------------------------|
Db|------------------------------------------------|
Ab|------------------------------------------------|
Eb|-7--7--7--0--0--0--0--3--3--3--3--3--5--5--5--5-|

Gb|------------------------------------------------|
Db|------------------------------------------------|
Ab|------------------------------------------------|
Eb|-7--7--7--0--0--0--0--3--3--3--3--3--5--5--5--5-|

Gb|-------------------------------------------------|
Db|-------------------------------------------------|
Ab|-------------------------------------------------|
Eb|-7--7--7--0--0--0--0--3--3--3--3--3--5--5--5--5-/|

Gb|-------------------------------------|
Db|-------------------------------------|
Ab|-------------------------------------|
Eb|-7----7-3--3--3--5--5-5-5-5-5-5-5-5-/|

[Chorus]

Gb|-----------------------------------------------------------------------|
Db|-----------------------------------------------------------------------|
Ab|-----------------------------------------------------------------------|
Eb|-7--7--7-5-3--3--3-/-(9)-10--10--10-\-5--5--5--5-/-(12)-\-0--3---3-3/5-|

Gb|-----------------------------------------------------------------------|
Db|-----------------------------------------------------------------------|
Ab|-----------------------------------------------------------------------|
Eb|-7--7--7-5-3--3--3-/-(9)-10--10--10-\-5--5--5--5-/-(12)-\-0--3---3-3/5-|

Gb|-----------------------------------------------------------------------|
Db|-----------------------------------------------------------------------|
Ab|-----------------------------------------------------------------------|
Eb|-7--7--7-5-3--3--3-/-(9)-10--10--10-\-5--5--5--5-/-(12)-\-0--3---3-3/5-|

Gb|------------------------------------------------|
Db|------------------------------------------------|
Ab|------------------------------------------------|
Eb|-7---7-5-3--3--3-/-(9)-10--10--10-\-5--5--5--5-\|

[Solo]

Gb|----------------------------------------|
Db|----------------------------------------|
Ab|----------------------------------------|
Eb|-4--4-/---7-7-7-7-7-\-2--2--2-/-5*----5-|

Gb|------------------------------------------|
Db|------------------------------------------|
Ab|------------------------------------------|
Eb|-4--4--4-/---7-7-7-7-7-\-2--2--2--5---5-5-|

Gb|-------------------------------------------|
Db|-------------------------------------------|
Ab|-------------------------------------------|
Eb|-4--4--4-/---7--7-7-7-\-2--2--2--5---5-5-5-|

Gb|------------------------------------------|
Db|------------------------------------------|
Ab|------------------------------------------|
Eb|-4--4--4-/-----7-7-7-\-2--2--2--5---5-5-5-|

[Bridge]

Gb|-------------------------------------|
Db|-------------------------------------|
Ab|-------------------------------------|
Eb|-0--0--0--3--3--3-2--2--2--5---5-5-5-|

Gb|---------------------------------------|
Db|---------------------------------------|
Ab|---------------------------------------|
Eb|-0--0--0--3--3--3-2--2--2--5---5-5-5-5-|

Gb|-------------------------------------|
Db|-------------------------------------|
Ab|-------------------------------------|
Eb|-0--0--0--3--3--3-2--2--2--5---5-5-5-|

Gb|---------------------------------------|
Db|---------------------------------------|
Ab|---------------------------------------|
Eb|-0--0--0--3--3--3-2--2--2--5---5-5-5-5-|

Gb|---------------------------------------|
Db|---------------------------------------|
Ab|---------------------------------------|
Eb|-0--0--0--3--3--3-2--2--2--5---5-5-5-5-|

Gb|---------------------------------------------------|
Db|---------------------------------------------------|
Ab|---------------------------------------------------|
Eb|-0--0--0--3--3-3-3-2-2-2-2-2-2-2-2-2-2-2-2-2-2-2-2-|

[Vocal Interlude]

Return with
Gb|-------------------|
Db|-------------------|
Ab|-------------------|
Eb|-0--0--0--3--3-3-5-|

[Chorus]

Gb|----------------------------------------------|
Db|----------------------------------------------|
Ab|----------------------------------------------|
Eb|-7---7-5-\-3--3-/-(9)-10--10--10-\-5--5--5--6-|

Gb|----------------------------------------------|
Db|----------------------------------------------|
Ab|----------------------------------------------|
Eb|-7---7-5-\-3--3-/-(9)-10--10--10-\-5--5--5--6-|

Gb|------------------------------------------------|
Db|------------------------------------------------|
Ab|------------------------------------------------|
Eb|-7--7--7-5-\-3--3-/-(9)-10--10--10-\-5--5--5--6-|

Gb|--------------------------------------------|
Db|--------------------------------------------|
Ab|--------------------------------------------|
Eb|-7--7--7-5-\-3--3-/-(9)-10---10-\-5----5--6-|

Gb|----------------------------------------------|
Db|----------------------------------------------|
Ab|----------------------------------------------|
Eb|-7---7-5-\-3--3-/-(9)-10--10--10-\-5--5--5--6-|

Gb|----------------------------------------------|
Db|----------------------------------------------|
Ab|----------------------------------------------|
Eb|-7---7-5-\-3--3-/-(9)-10--10--10-\-5--5--5--6-|

Gb|------------------------------------------------|
Db|------------------------------------------------|
Ab|------------------------------------------------|
Eb|-7--7--7-5-\-3--3-/-(9)-10--10--10-\-5--5--5--6-|

Gb|------------------------------------------------|
Db|------------------------------------------------|
Ab|------------------------------------------------|
Eb|-7--7--7-5-\-3--3-/-(9)-10--10--10-\-5--5--5--6-|

Gb|------------------------------------------|
Db|------------------------------------------|
Ab|------------------------------------------|
Eb|-7--7--7-5-\-3--3-/-(9)-10---10-\-5-5-5-6-|

Gb|------------------------------------------|
Db|------------------------------------------|
Ab|------------------------------------------|
Eb|-7--7--7-5-\-3--3-/-(9)-10---10-\-5-5-5-6-|

Gb|------------------------------------------|
Db|------------------------------------------|
Ab|------------------------------------------|
Eb|-7--7--5--3--3-/-(9)-10--10--10-\-5-5-5-6-|


Gb|-------------------------------------------------|
Db|-------------------------------------------------|
Ab|-------------------------------------------------|
Eb|-7---7-5-\-3--3-/-(9)-10--10--10-\-5--5--5--6--0-|

[Outro]

Gb|----------------|
Db|----------------|
Ab|----------------|
Eb|-0-0-3----2*----|


************************************

| x   Dead note
| g   Grace note
| h   Hammer-on
| p   Pull-off
| r   Release
| >   Accented note
| t   Tapping
| b   Bend
| br  Bend release
| pb  Pre-bend
| pbr Pre-bend release
| /   Slide up
| \   Slide down
| ~   Vibrato
| s   Slap
| P   Pop
| PM  Palm mute
| TR  Trill
| N   Tremolo

************************************

            
            
Suggest correction
Creating personal tab
Creating personal tab
You can edit any tab online and save it as your Personal.

You can edit, replace or remove any tab part or add personal notes – all changes will be seen only by you.

Personal tabs can be accessed anytime from any device, even offline.
Learn more »
Give kudos to tab author, rate the tab!
1 2 3 4 5
comments
print report bad tab
guest
You may want to rate the tab now too:
select rating
Wanna post a correction for this tab? Suggest correction