Oops, an error
Loading. Please wait.
We have an official Cherub Rock tab made by UG professional guitarists. Check out the tab »
×
20,334 views 153 this week
1 commentread comment
1 2 3 4 5
x 30
add to favorites
×
Save as Personal and add changes to this tab that will be seen only by you. Learn more ›
×
You can save this tab as Personal to edit and correct it or add notes. All changes will be seen only by you. Learn more »
launch autoscroll
font size
0
reset
transpose
0
reset
simplify chords
display chords
guitar tuner
backing track
0:00
0:00
edit
Autoscroll
slow
fast
+/-
esc
set tempo
stop
Author
Difficulty
Strumming
There is no strumming pattern for this song yet. and get +5 IQ
Set amp to a neutral tone and kick on a fuzzface or similar effect full blast to get a high powered
gain warm fuzziness going - all tube amp works best.

Open E / Octave Riff thingy - approx but you will find the groove rather quickly -

Intro is open E with an octave riff/slide A string 7th fret / G string 9th fret
(mute the D string and other strings)

Then corgan basically rides the open E, and does an octave slide from the 11th fret, to the 12th fret,
back down to the 9th fret, then to the 7th fret , all with that octave chord.

Ride the open E hard, even give a little pick harmonic on the A string to add depth.

e|------------------------------------|
B|------------------------------------|
G|----9-9--9--9-9--9--9--9--9----9----| you will get the groove if you listen to the song
D|------------------------------------|
A|----7-7--7-7--7--7-7--7---7----7----|
E|--0--0-0--0-0--0--0--0-0--0-0-------|

E RIFF THINGY: keep repeating slowly until you find groove,then add the octave lower note:

e|----------------------------|
B|----------------------------|
G|-----13----------13--11\9---|
D|----------------------------|.....x 2 (twice)
A|-----11-11h12p11-11--9\7----|
E|---0------------------------|


[E RIFF THINGY]

Freak out, give in,
        Dmaj            Amaj           E riff
Doesn't matter what you all believe in
               Dmaj          Amaj       E riff
Stay cool, and be somebody's fool this year
                        Dmaj              Amaj
'Cause they know who is righteous what is bold
C        G
  So I'm told


[Chorus]

D   A     C  G      D    A         
      C  G
Who wants honey, as long as there's some money
D   A          C
Who wants that honey..


[E RIFF THINGY]

                     Dmaj              Amaj          E riff
Hipsters unite, come align for the big fight to rock for you -
                     Dmaj              Amaj          E Riff
But beware all those angels with their wings glued on
                        Dmaj                  Amaj
'Cause deep down we are frightened and we are scared
C              G
  If you don't stare


[Chorus]


[Bridge]

E  D5     A (2)  C5  G5/D
   Let me out
E    D5     A (2)  C5  G5/D
Let  let me out
E    D5     A (2)  C5  G5/D
Let  let me out
E    D5     A (2)  C5  G5/D
Let..let me out....

RIDE THE OPEN E!!

e|------------------------------------------------------------|
B|------------------------------------------------------------|
G|----9-9---9-9---9---9-9---9-9-9-----13-13---13-13---13---13-|
D|------------------------------------------------------------|
A|----7-7---7-7---7---7-7---7-7-7-----11-11---11-11---11---11-|
E|--0-----0-----0---------0-------0-0-------0-------0---------|

e|------------------------------------------------------------|
B|------------------------------------------------------------|
G|-13---13-13-13-----16-16---16-16---16---16-16---16-16-16----|
D|------------------------------------------------------------|
A|-11---11-11-11-----14-14---14-14---14---14-14---14-14-14----|
E|----0----------0-0-------0-------0------------0----------0--|


e|---------------------------------------|
B|---------------------------------------|
G|---19-19---19-19---21---21-21----------|
D|--------------------------------x\-x\--|
A|---17-17---17-17---19---19-19---x\-x\--|
E|-0-------0-------0------------0-x\-x\--|

Sounds like he kicks on an Octave up or a hard modulation/chorus during solo
He improvises live in the key of E or A, im not sure but its one of those pentatonic scales

Dmaj - Amaj - E
Dmaj - Amaj - E
Dmaj - Amaj - E
Dmaj - Amaj - C - G


D         A           C  G
  Tell me all of your secrets
D        A          C     G
  Cannot help but believe this is true
D         A           C  G
  Tell me all of your secrets
  D             A                 C                   G
I know I know I know, should have listened when I was told.


[Chorus]

D   A     C  G      D    A         
      C  G
Who wants honey, as long as there's some money
D   A          C
Who wants that honey..



************************************

| h  Hammer-on
| p  Pull-off
| \  Slide down
| x  dead note

************************************

            
            
Suggest correction
Creating personal tab
Creating personal tab
You can edit any tab online and save it as your Personal.

You can edit, replace or remove any tab part or add personal notes – all changes will be seen only by you.

Personal tabs can be accessed anytime from any device, even offline.
Learn more »
comments
print report bad tab
1 comment total.
0 reply
lavalsean 10 Aug 28, 2017 09:44 PM

because you spent your time when you didn't have to, thanks from the community!

guest
You may want to rate the tab now too:
select rating
Wanna post a correction for this tab? Suggest correction