Oops, an error
Loading. Please wait.
We have an official Cherub Rock tab made by UG professional guitarists. Check out the tab »
×
34,161 views 42 this week
3 commentsread comments
1 2 3 4 5
x 5
add to favorites
×
Save as Personal and add changes to this tab that will be seen only by you. Learn more ›
×
You can save this tab as Personal to edit and correct it or add notes. All changes will be seen only by you. Learn more »
launch autoscroll
font size
0
reset
guitar tuner
backing track
0:00
0:00
edit
Autoscroll
slow
fast
+/-
esc
set tempo
stop
Author
Difficulty
Unregistered
Cherub Rock  
Standard Tuning                                 


                                                          Smashing Pumpkins


    4/4                  2/4 
  
     W                   H           W                   W                 
G|-------------------|-----------|-------------------|-------------------|
D|-------------------|-----------|-------------------|-------------------|
A|-------------------|-----------|-------------------|-------------------|
E|-------------------|-----------|-------------------|-------------------|


    W                   W                   S S S S S S S S S S S S S S S S  
G|-------------------|-------------------|----------------------------------|
D|-------------------|-------------------|----------------------------------|
A|-------------------|-------------------|----7-7---7-7---0-L-7-7---7-7-7---|
E|-------------------|-------------------|--0-----0-----0---------0-------0-|


    S S S S S S S S S S S S S S S S    S S S S S S S S S S S S S S S S  
G|----------------------------------|----------------------------------|
D|----------------------------------|----------------------------------|
A|----7-7---7-7---7-L-7-7---7-7-7---|----7-7---7-7---7-L-7-7---7-7-7---|
E|--0-----0-----0---------0-------0-|--0-----0-----0---------0-------0-|


    S S S S S S S S S S S S S S S S    S S S S S S S S S S S S S S S S  
G|----------------------------------|----------------------------------|
D|----------------------------------|----------------------------------|
A|----7-7---7-7---7-L-7-7---7-7-7---|----7-7---7-7---7-L-7-7---7-7-7---|
E|--0-----0-----0---------0-------0-|--0-----0-----0---------0-------0-|


    S S S S S S S S S S S S S S S S    S S S S S S S S S S S S S S S S  
G|----------------------------------|----------------------------------|
D|----------------------------------|----------------------------------|
A|----7-7---7-7---7-L-7-7---7-7-7---|----7-7---7-7---7-L-7-7---7-7-7---|
E|--0-----0-----0---------0-------0-|--0-----0-----0---------0-------0-|


    S S S S S S S S S S S S S S S S    S S S S S S S S S S S S S S S S  
G|----------------------------------|----------------------------------|
D|----------------------------------|----------------------------------|
A|----7-7---7-7---7-L-7-7---7-7-7---|----7-7---7-7---7-L-7-7---7-7-7---|
E|--0-----0-----0---------0-------0-|--0-----0-----0---------0-------0-|


    S S S S S S S S S S S S S S S S    E.  S E  S E  S E  S S S S  
G|----------------------------------|-----------------------------|
D|----------------------------------|-----------------------------|
A|----7-7---7-7---7-L-7-7---7-7-7---|--5---5-5--0-0--0-0----------|
E|--0-----0-----0---------0-------0-|---------------------0-0-0-0-|


    S S S S S S S S S S S S S S S S    S S S S S S S S S S S S S S S S  
G|----------------------------------|----------------------------------|
D|----------------------------------|----------------------------------|
A|----7-7---7-7---7-L-7-7---7-7-7---|----7-7---7-7---7-L-7-7---7-7-7---|
E|--0-----0-----0---------0-------0-|--0-----0-----0---------0-------0-|


    S S S S S S S S S S S S S S S S    S S S S S S S S S S S S S S S S  
G|----------------------------------|----------------------------------|
D|----------------------------------|----------------------------------|
A|----7-7---7-7---7-L-7-7---7-7-7---|----7-7---7-7---7-L-7-7---7-7-7---|
E|--0-----0-----0---------0-------0-|--0-----0-----0---------0-------0-|


    S S S S S S S S S S S S S S S S    S S S S S S S S S S S S S S S S  
G|----------------------------------|----------------------------------|
D|----------------------------------|----------------------------------|
A|----7-7---7-7---7-L-7-7---7-7-7---|----7-7---7-7---7-L-7-7---7-7-7---|
E|--0-----0-----0---------0-------0-|--0-----0-----0---------0-------0-|


    E.  S E  S E  S E  S S S S    S S S S S S S S S S S S S S S S  
G|-----------------------------|----------------------------------|
D|-----------------------------|----------------------------------|
A|--5---5-5--0-0--0-0----------|----7-7---7-7---7-L-7-7---7-7-7---|
E|---------------------0-0-0-0-|--0-----0-----0---------0-------0-|


    S S S S S S S S S S S S S S S S    E.  S E  S E  S E  S S S S  
G|----------------------------------|-----------------------------|
D|----------------------------------|-----------------------------|
A|----7-7---7-7---7-L-7-7---7-7-7---|--5---5-5--0-0--0-0----------|
E|--0-----0-----0---------0-------0-|---------------------0-0-0-0-|


    S S S S S S S S S S S S S S S S    S S S S S S S S S S S S S S S S  
G|----------------------------------|----------------------------------|
D|----------------------------------|----------------------------------|
A|----7-7---7-7---7-L-7-7---7-7-7---|----7-7---7-7---7-L-7-7---7-7-7---|
E|--0-----0-----0---------0-------0-|--0-----0-----0---------0-------0-|


    E.  S E  S E  S E  S S S S    E.  S S S S E  S S S S S S S  
G|-----------------------------|-------------------------------|
D|-----------------------------|-------------------------------|
A|--5---5-5--0-0--0-0--0-0-0-2-|--3---3-3-3--------------------|
E|-----------------------------|------------0-3--3-3-3-3-3-3-3-|


    E.  S E  S E  S E  S S S S    E.  S S S S E  S S S S S S S  
G|-----------------------------|-------------------------------|
D|-----------------------------|-------------------------------|
A|--5---5-5--0-0--0-0--0-0-0-2-|--3---3-3-3--------------------|
E|-----------------------------|------------0-3--3-3-3-3-3-3-3-|


    E.  S E  S E  S E  S S S S    E.  S S S S E  S S S S S S S  
G|-----------------------------|-------------------------------|
D|-----------------------------|-------------------------------|
A|--5---5-5--0-0--0-0--0-0-0-2-|--3---3-3-3--------------------|
E|-----------------------------|------------0-3--3-3-3-3-3-3-3-|


    E.  S E  S E  S E  S S S S    E  S S E  S S E  S S S S S S  
G|-----------------------------|-------------------------------|
D|-----------------------------|-------------------------------|
A|--5---5-5--0-0--0-0--0-0-0-2-|--3--3-3-3--3-3-3--3-3-3-3-3-3-|
E|-----------------------------|-------------------------------|


    S S S S S S S S S S S S S S S S    S S S S S S S S S S S S S S S S  
G|----------------------------------|----------------------------------|
D|----------------------------------|----------------------------------|
A|----7-7---7-7---7-L-7-7---7-7-7---|----7-7---7-7---7-L-7-7---7-7-7---|
E|--0-----0-----0---------0-------0-|--0-----0-----0---------0-------0-|


    S S S S S S S S S S S S S S S S    S S S S S S S S S S S S S S S S  
G|----------------------------------|----------------------------------|
D|----------------------------------|----------------------------------|
A|----7-7---7-7---7-L-7-7---7-7-7---|----7-7---7-7---7-L-7-7---7-7-7---|
E|--0-----0-----0---------0-------0-|--0-----0-----0---------0-------0-|


    S S S S S S S S S S S S S S S S    S S S S S S S S S S S S S S S S  
G|----------------------------------|----------------------------------|
D|----------------------------------|----------------------------------|
A|----7-7---7-7---7-L-7-7---7-7-7---|----7-7---7-7---7-L-7-7---7-7-7---|
E|--0-----0-----0---------0-------0-|--0-----0-----0---------0-------0-|


    E.  S E  S E  S E  S S S S    S S S S S S S S S S S S S S S S  
G|-----------------------------|----------------------------------|
D|-----------------------------|----------------------------------|
A|--5---5-5--0-0--0-0--0-0-0-2-|----7-7---7-7---7-L-7-7---7-7-7---|
E|-----------------------------|--0-----0-----0---------0-------0-|


    S S S S S S S S S S S S S S S S    E.  S E  S E  S E  S S S S  
G|----------------------------------|-----------------------------|
D|----------------------------------|-----------------------------|
A|----7-7---7-7---7-L-7-7---7-7-7---|--5---5-5--0-0--0-0--0-0-0-2-|
E|--0-----0-----0---------0-------0-|-----------------------------|


    S S S S S S S S S S S S S S S S    S S S S S S S S S S S S S S S S  
G|----------------------------------|----------------------------------|
D|----------------------------------|----------------------------------|
A|----7-7---7-7---7-L-7-7---7-7-7---|----7-7---7-7---7-L-7-7---7-7-7---|
E|--0-----0-----0---------0-------0-|--0-----0-----0---------0-------0-|


    E.  S E  S E  S E  S S S S    E.  S S S S E  S S S S S S S  
G|-----------------------------|-------------------------------|
D|-----------------------------|-------------------------------|
A|--5---5-5--0-0--0-0--0-0-0-2-|--3---3-3-3--------------------|
E|-----------------------------|------------0-3--3-3-3-3-3-3-3-|


    E.  S E  S E  S E  S S S S    E.  S S S S E  S S S S S S S  
G|-----------------------------|-------------------------------|
D|-----------------------------|-------------------------------|
A|--5---5-5--0-0--0-0--0-0-0-2-|--3---3-3-3--------------------|
E|-----------------------------|------------0-3--3-3-3-3-3-3-3-|


    E.  S E  S E  S E  S S S S    E.  S S S S E  S S S S S S S  
G|-----------------------------|-------------------------------|
D|-----------------------------|-------------------------------|
A|--5---5-5--0-0--0-0--0-0-0-2-|--3---3-3-3--------------------|
E|-----------------------------|------------0-3--3-3-3-3-3-3-3-|


    E.  S E  S E  S E  S S S S    E  S S E  S S E  S S S S S S  
G|-----------------------------|-------------------------------|
D|-----------------------------|-------------------------------|
A|--5---5-5--0-0--0-0--0-0-0-2-|--3--3-3-3--3-3-3--3-3-5-5-5-5-|
E|-----------------------------|-------------------------------|


    E  S S S S S E  S E  E  E     E  S S E  S E  S S S E  E   
G|-----------------------------|-----------------------------|
D|-----------------------------|-----------------------------|
A|-----------------------5--5--|--0--0-0-0--2-3--3-3---------|
E|--0--0-0-0-0-0-0--0-0--------|---------------------0-3--0--|


    E  S S S S S E  S E  E  E     E  S S E  S E  S S S E  E   
G|-----------------------------|-----------------------------|
D|-----------------------------|-----------------------------|
A|-----------------------5--5--|--0--0-0-0--2-3--3-3---------|
E|--0--0-0-0-0-0-0--0-0--------|---------------------0-3--0--|


    E  S S S S S E  S E  E  E     E  S S E  S E  S S S E  E   
G|-----------------------------|-----------------------------|
D|-----------------------------|-----------------------------|
A|-----------------------5--5--|--0--0-0-0--2-3--3-3---------|
E|--0--0-0-0-0-0-0--0-0--------|---------------------0-3--0--|


    E  S S S S S E  S E  E  E     E  S S E  S E  S S S E  E   
G|-----------------------------|-----------------------------|
D|-----------------------------|-----------------------------|
A|-----------------------5--5--|--0--0-0-0--2-3--3-3---------|
E|--0--0-0-0-0-0-0--0-0--------|---------------------0-3--0--|


    S S S S S S S S S S S S S S S S    S S S S S S S S S S S S S S S S  
G|----------------------------------|----------------------------------|
D|----------------------------------|----------------------------------|
A|----7-7---7-7---7-L-7-7---7-7-7---|----7-7---7-7---7-L-7-7---7-7-7---|
E|--0-----0-----0---------0-------0-|--0-----0-----0---------0-------0-|


    S S S S S S S S S S S S S S S S    S S S S S S S S S S S S S S S S  
G|----------------------------------|----------------------------------|
D|----------------------------------|----------------------------------|
A|----7-7---7-7---7-L-7-7---7-7-7---|----7-7---7-7---7-L-7-7---7-7-7---|
E|--0-----0-----0---------0-------0-|--0-----0-----0---------0-------0-|


    E.  S E  S E  S E  S S S S    S S S S S S S S S S S S S S S S  
G|-----------------------------|----------------------------------|
D|-----------------------------|----------------------------------|
A|--5---5-5--0-0--0-0----------|----7-7---7-7---7-L-7-7---7-7-7---|
E|---------------------0-0-0-0-|--0-----0-----0---------0-------0-|


    E.  S E  S E  S E  S S S S    S S S S S S S S S S S S S S S S  
G|-----------------------------|----------------------------------|
D|-----------------------------|----------------------------------|
A|--5---5-5--0-0--0-0----------|----7-7---7-7---7-L-7-7---7-7-7---|
E|---------------------0-0-0-0-|--0-----0-----0---------0-------0-|


    E.  S E  S E  S E  S S S S    S S S S S S S S S S S S S S S S  
G|-----------------------------|----------------------------------|
D|-----------------------------|----------------------------------|
A|--5---5-5--0-0--0-0----------|----7-7---7-7---7-L-7-7---7-7-7---|
E|---------------------0-0-0-0-|--0-----0-----0---------0-------0-|


    E.  S E  S E  S E  S S S S    E.  S S S S E  S S S S S S S  
G|-----------------------------|-------------------------------|
D|-----------------------------|-------------------------------|
A|--5---5-5--0-0--0-0--0-0-0-2-|--3---3-3-3--------------------|
E|-----------------------------|------------0-3--3-3-3-3-3-3-3-|


    E.  S E  S E  S E  S S S S    E.  S S S S E  S S S S S S S  
G|-----------------------------|-------------------------------|
D|-----------------------------|-------------------------------|
A|--5---5-5--0-0--0-0--0-0-0-2-|--3---3-3-3--------------------|
E|-----------------------------|------------0-3--3-3-3-3-3-3-3-|


    E.  S E  S E  S E  S S S S    E.  S S S S E  S S S S S S S  
G|-----------------------------|-------------------------------|
D|-----------------------------|-------------------------------|
A|--5---5-5--0-0--0-0--0-0-0-2-|--3---3-3-3--------------------|
E|-----------------------------|------------0-3--3-3-3-3-3-3-3-|


    E.  S E  S E  S E  S S S S    E.  S S S S E  S S S S S S S  
G|-----------------------------|-------------------------------|
D|-----------------------------|-------------------------------|
A|--5---5-5--0-0--0-0--0-0-0-2-|--3---3-3-3--------------------|
E|-----------------------------|------------0-3--3-3-3-3-3-3-3-|


    E.  S E  S E  S E  S S S S    E.  S S S S E  S S S S S S S  
G|-----------------------------|-------------------------------|
D|-----------------------------|-------------------------------|
A|--5---5-5--0-0--0-0--0-0-0-2-|--3---3-3-3--------------------|
E|-----------------------------|------------0-3--3-3-3-3-3-3-3-|


    E.  S E  S E  S E  S S S S    E.  S S S S E  S S S S S S S  
G|-----------------------------|-------------------------------|
D|-----------------------------|-------------------------------|
A|--5---5-5--0-0--0-0--0-0-0-2-|--3---3-3-3--------------------|
E|-----------------------------|------------0-3--3-3-3-3-3-3-3-|


    E.  S E  S E  S E  S S S S    E.  S S S S E  S S S S S S S  
G|-----------------------------|-------------------------------|
D|-----------------------------|-------------------------------|
A|--5---5-5--0-0--0-0--0-0-0-2-|--3---3-3-3--------------------|
E|-----------------------------|------------0-3--3-3-3-3-3-3-3-|


    E.  S E  S E  S E  S S S S    E  S S E  S S E  S S E  E   
G|-----------------------------|-----------------------------|
D|-----------------------------|-----------------------------|
A|--5---5-5--0-0--0-0--0-0-0-2-|--3--3-3-3--3-3-3--3-3-3--3--|
E|-----------------------------|-----------------------------|


    E  S S E  S S E  S S E  E     E  S S S S S E  S E  E  E   
G|-----------------------------|-----------------------------|
D|-----------------------------|-----------------------------|
A|--3--3-3-3--3-3-3--3-3-------|-----------------------5--5--|
E|-----------------------3--3--|--0--0-0-0-0-0-0--0-0--------|


    E  S S E  S E  S S S E  E     E  S S S S S E  S E  E  E   
G|-----------------------------|-----------------------------|
D|-----------------------------|-----------------------------|
A|--3--3-3-3--3-3--3-3---------|-----------------------5--5--|
E|---------------------0-3--3--|--0--0-0-0-0-0-0--0-0--------|


    E  S S E  S E  S S S E  E     E  S S S S S E  S E  E  E   
G|-----------------------------|-----------------------------|
D|-----------------------------|-----------------------------|
A|--3--3-3-3--3-3--3-3---------|-----------------------5--5--|
E|---------------------0-3--3--|--0--0-0-0-0-0-0--0-0--------|


    E  S S E  S E  S S S E  E     E  S S S S S E  S E  E  E   
G|-----------------------------|-----------------------------|
D|-----------------------------|-----------------------------|
A|--3--3-3-3--3-3--3-3---------|-----------------------5--5--|
E|---------------------0-3--3--|--0--0-0-0-0-0-0--0-0--------|


    E  S S E  S E  S S S E  E     S S S S S S S S S S S S S S S S  
G|-----------------------------|----------------------------------|
D|-----------------------------|----------------------------------|
A|--3--3-3-3--3-3--3-3---------|----7-7---7-7---7-L-7-7---7-7-7---|
E|---------------------0-3--3--|--0-----0-----0---------0-------0-|


    S S S S S S S S S S S S S S S S    S S S S S S S S S S S S S S S S  
G|----------------------------------|----------------------------------|
D|----------------------------------|----------------------------------|
A|----7-7---7-7---7-L-7-7---7-7-7---|----7-7---7-7---7-L-7-7---7-7-7---|
E|--0-----0-----0---------0-------0-|--0-----0-----0---------0-------0-|


    S S S S S S S S S S S S S S S S    S S S S S S S S S S S S S S S S  
G|----------------------------------|----------------------------------|
D|----------------------------------|----------------------------------|
A|----7-7---7-7---7-L-7-7---7-7-7---|----7-7---7-7---7-L-7-7---7-7-7---|
E|--0-----0-----0---------0-------0-|--0-----0-----0---------0-------0-|


    S S S S S S S S S S S S S S S S    S S S S S S S S S S S S S S S S  
G|----------------------------------|----------------------------------|
D|----------------------------------|----------------------------------|
A|----7-7---7-7---7-L-7-7---7-7-7---|----7-7---7-7---7-L-7-7---7-7-7---|
E|--0-----0-----0---------0-------0-|--0-----0-----0---------0-------0-|


    S S S S S S S S S S S S S S S S    W                                      
G|----------------------------------|-------------------|-------------------||
D|----------------------------------|-------------------|-------------------||
A|----7-7---7-7---7-L-7-7---5-L-L-L-|-------------------|-------------------||
E|--0-----0-----0---------0---------|--0----------------|-------------------||




Duration Legend
---------------
W - whole
H - half
Q - quarter
E - 8th
S - 16th
T - 32nd
X - 64th
. - note dotted
|-n-|  - n-tuplets


************************************

| L tied note

************************************
Suggest correction
Creating personal tab
Creating personal tab
You can edit any tab online and save it as your Personal.

You can edit, replace or remove any tab part or add personal notes – all changes will be seen only by you.

Personal tabs can be accessed anytime from any device, even offline.
Learn more »
comments
print report bad tab
3 comments total.
+5 reply
HawkBassNelson 91 Jul 06, 2010 03:32 PM

waaaaaayyyyyy too many pages man. put some repeats in there or somethin, cuz i cant even fit all of this on two music stands

0 reply
DanielZXC 10 Jan 16, 2014 04:36 PM

soo hard to read but its a nice tab +5

+3 reply
vague00 10 Mar 07, 2014 08:12 AM, edited on March 9 2014, 10:22 pm

*These are basically the original tabs, I just re-formatted them. Enjoy, my fellow musicians! Use this as more of a guide for counting and notes... after learning the song, I found that the placement of some minor details is little bit wrong.
===========================================================================
Intro
----------------------------------|----------------------------------|
----------------------------------|----------------------------------| X 5
----7-7---7-7---7-L-7-7---7-7-7---|----7-7---7-7---7-L-7-7---7-7-7---|
--0-----0-----0---------0-------0-|--0-----0-----0---------0-------0-|

-----------------------------|
-----------------------------|
--5---5-5--0-0--0-0----------|
---------------------0-0-0-0-|

===========================================================================
PRE-VERSE
----------------------------------|----------------------------------|
----------------------------------|----------------------------------| X 2
----7-7---7-7---7-L-7-7---7-7-7---|----7-7---7-7---7-L-7-7---7-7-7---|
--0-----0-----0---------0-------0-|--0-----0-----0---------0-------0-|

===========================================================================
VERSE (Below X 2)
----------------------------------|----------------------------------|
----------------------------------|----------------------------------|
----7-7---7-7---7-L-7-7---7-7-7---|----7-7---7-7---7-L-7-7---7-7-7---|
--0-----0-----0---------0-------0-|--0-----0-----0---------0-------0-|

-----------------------------|
-----------------------------|
--5---5-5--0-0--0-0----------|
---------------------0-0-0-0-|

===========================================================================
CHORUS
----------------------------------|----------------------------------|
----------------------------------|----------------------------------|
----7-7---7-7---7-L-7-7---7-7-7---|----7-7---7-7---7-L-7-7---7-7-7---|
--0-----0-----0---------0-------0-|--0-----0-----0---------0-------0-|

-----------------------------|-------------------------------|
-----------------------------|-------------------------------| X 3
--5---5-5--0-0--0-0--0-0-0-2-|--3---3-3-3--------------------|
-----------------------------|------------0-3--3-3-3-3-3-3-3-|

===========================================================================
INTERLUDE
-----------------------------|-------------------------------|
-----------------------------|-------------------------------|
--5---5-5--0-0--0-0--0-0-0-2-|--3--3-3-3--3-3-3--3-3-3-3-3-3-|
-----------------------------|-------------------------------|

===========================================================================
PRE-VERSE
===========================================================================
VERSE
===========================================================================
CHORUS
===========================================================================
ENDING
-----------------------------|-------------------------------|
-----------------------------|-------------------------------|
--5---5-5--0-0--0-0--0-0-0-2-|--3--3-3-3--3-3-3--3-3-5-5-5-5-|
-----------------------------|-------------------------------|

-----------------------------|-----------------------------|
-----------------------------|-----------------------------| X 4
-----------------------5--5--|--0--0-0-0--2-3--3-3---------|
--0--0-0-0-0-0-0--0-0--------|---------------------0-3--0--|

----------------------------------|----------------------------------|
----------------------------------|----------------------------------| X 2
----7-7---7-7---7-L-7-7---7-7-7---|----7-7---7-7---7-L-7-7---7-7-7---|
--0-----0-----0---------0-------0-|--0-----0-----0---------0-------0-|

-----------------------------|----------------------------------|
-----------------------------|----------------------------------| X 3
--5---5-5--0-0--0-0----------|----7-7---7-7---7-L-7-7---7-7-7---|
---------------------0-0-0-0-|--0-----0-----0---------0-------0-|

-----------------------------|-------------------------------|
-----------------------------|-------------------------------| X 7
--5---5-5--0-0--0-0--0-0-0-2-|--3---3-3-3--------------------|
-----------------------------|------------0-3--3-3-3-3-3-3-3-|

-----------------------------|-----------------------------|
-----------------------------|-----------------------------|
--5---5-5--0-0--0-0--0-0-0-2-|--3--3-3-3--3-3-3--3-3-3--3--|
-----------------------------|-----------------------------|

-----------------------------|-----------------------------|
-----------------------------|-----------------------------| X 4
-----------------------5--5--|--0--0-0-0--2-3--3-3---------|
--0--0-0-0-0-0-0--0-0--------|---------------------0-3--0--|

----------------------------------|----------------------------------|
----------------------------------|----------------------------------| X 4
----7-7---7-7---7-L-7-7---7-7-7---|----7-7---7-7---7-L-7-7---7-7-7---|
--0-----0-----0---------0-------0-|--0-----0-----0---------0-------0-|

guest
Wanna post a correction for this tab? Suggest correction