Oops, an error
Loading. Please wait.

Cherub Rock Tab

version 2
version 2

Solo

Whole song

Video

193,780 views 591 this week
15 commentsread comments
1 2 3 4 5
excellent!
x 30
add to favorites
launch autoscroll
font size
0
reset
how to read this tab
guitar tuner
Tab Pro tools
  • play this tab
  • loop segment
  • change instrument
  • show fretboard
  • metronome
×
Best way to learn
"Cherub Rock"
Autoscroll
slow
fast
+/-
esc
set tempo
stop
Contributor
----------------------------------------------------------------------------
smashing pumpkins - cherub rock
----------------------------------------------------------------------------
Tabbed by:doodoo62
Email:shoebrain@msn.com
Tuning:standard
this is probaly 80% right e-mail corrections at

e|-----------------------------|-------------------------------------|
B|-----------------------------|-------------------------------------|
G|---9-9---9---9-9--9-9-9-9----|---13-13--13--13-13---13-13-13-13----|
D|---x-x---x---x-x--x-x-x-x(x6)|---x--x---x---x--x----x--x--x--x-----|(x2)
A|---7-7---7---7-7--7-7-7-7----|---11-11--11--11-11---11-11-11-11----|
E|-0-----0---0------0----------|-0-------0--0------------------------|

e|----------------------------------------|
B|----------------------------------------|
G|---16-16---16---16-16---16-16-16-16-----|
D|---x--x----x----x--x----x--x--x--x------|(x4)
A|---14-14---14---14-14---14-14-14-14-----|
E|-0-------0----0---------0---------------|


  Im not sure if the 0s are in there. you decide. G2:
e|------------------------------|-----------------|
B|------------------------------|---------10------|
G|-11/9-x-x--13/14-13--11/9-----|-11------9-------|
D|-x----x-x--x-----x---x--------|-x--(x5)-11-(x5)-|
A|-9-/7-x-x--11/12-11--9-/7-----|-9-------0-------|
E|-0----0-0--0-----0---0--------|-10--------------|

G1:
e|----------------------|-------------------------|
B|----------------------|-------------------------|
G|----------------------|-------------------------|
D|----------------------|-7-7-7-7-7---------------|
A|----------------------|-7-7-7-7-7-7-7-7-7-7-----|
E|--9p7---11h12-11--9p-7|-5-5-5-5-5-7-7-7-7-7-----|
E|------7---------------|-----------5-5-5-5-5-----|


G2:
e|------------------------------|-----------------------------|
B|------------------------------|---------10------------------|
G|-11/9-x-x--13/14-13--11b------|-11------9-------9-----4-----|
D|-x----x-x--x-----x---x--------|-x--(x5)-11-(x5)-x-(x5)x(x5)-|
A|-9-/7-x-x--11/12-11--9-b------|-9-------0-------7-----2-----|
E|-0----0-0--0-----0---0--------|-10--------------8-----3-----|


G1:
e|----------------------|-----------------------------------------|
B|----------------------|-----------------------------------------|
G|----------------------|-----------------------------------------|
D|----------------------|-7-7-7-7-7-----------5-5-5-5-5-----------|
A|----------------------|-7-7-7-7-7-7-7-7-7-7-5-5-5-5-5-5-5-5-5-5-|
E|--9p7---11h12-11--9p-7|-5-5-5-5-5-7-7-7-7-7-3-3-3-3-3-5-5-5-5-5-|
E|------7---------------|-----------5-5-5-5-5-----------3-3-3-3-3-|


G2
e|----------------------------------------------|
B|-------------10-------------------------------|
G|-------------9--------------------------------|
D|-13----11----11----9----4---------------------|
A|-x-(x5)x-(x5)0-(x5)x(x2)x(x2)-----------------|
E|-11----9-----------7----2---------------------|
E|-0-----10----------8----3---------------------|


G1&2:
e|-------------------------------------|
B|-------------------------------------|
G|---9--9---9--9---9---9--9---9--9--9--|
D|-------------------------------------|
A|---7--7---7--7---7---7--7---7--7--7--|
E|-0------0------0----------0----------|

G1&2:
e|----------------------------------------------|
B|----------------------------------------------|
G|--13--13---13--13---13---13--13---13--13--13--|
D|----------------------------------------------|
A|--11--11---11--11---11---11--11---11--11--11--|
E|0--------0--------0-------------0-------------|

G1&2:
e|----------------------------------------------|
B|----------------------------------------------|
G|--16--16---16--16---16---16--16---16--16--16--|
D|----------------------------------------------|
A|--14--14---14--14---14---14--14---14--14--14--|
E|0--------0--------0-------------0-------------|

G1&2
e|------------------------------|
B|------------------------------|
G|--19--19---19--19---19/21-----|
D|------------------------------|
A|--17--17---17--17---17/19-----|
E|0--------0--------0-----------|

solo:


e|-12--------------------------19b21-19--17h19-19p16-17p16--------------|
B|-15b17--21r19-17h19p17---------------------------------17-19b21-------|
G|----------------------------------------------------------------------|
D|----------------------------------------------------------------------|
A|-----------------------------------------------------------------4gb5-|
E|----------------------------------------------------------------------|


e|--------------------------------------------------------|
B|---14p12p9----------------------------------------------|
G|------------13p11p9/11-13---11b13-----11-9---9-9--------|
D|--------------------------------------------------------|
A|--------------------------------------------------------|
E|--------------------------------------------------------|

e|----------------------------------------------------------|
B|----------------------------------------------------------|
G|-------------------------------9--11--11b12r11b12--11/7/2-|
D|----------------------------------------------------------|
A|-11--9/7--9b11r9b11r9--7--9/11----------------------------|
E|----------------------------------------------------------|
(i take zero credit for this solo its not mine)

Im sure if you listen to the record you can get the order
Im too Laaaaaaaaaaaaaaaaaaaaaaaaaazy
Hope you like and please e-mail me corrections:shoebrain@msn.com
comments
print report bad tab
15 comments total. Showing first comments.
+2 reply
jolson27 wrote on May 3 2005, 12:00 am

great tab

+1 reply
limade123456 wrote on April 14 2006, 12:08 pm

amazing so hard to tab itd take forever :)

+1 reply
lazyboat wrote on January 5 2007, 11:12 am

wkd tab i think the o's are in there on that second riff bit

I want to post or [tab]
guest
You may want to rate the tab now too:
select rating
Please do not post tabs as comments. Select "correction" instead!