Oops, an error
Loading. Please wait.
We have an official Cherub Rock tab made by UG professional guitarists. Check out the tab »
×
214,256 views 246 this week
22 commentsread comments
1 2 3 4 5
x 64
add to favorites
launch autoscroll
font size
0
reset
how to read this tab
guitar tuner
backing track
0:00
0:00
×
Best way to learn
"Cherub Rock"
Autoscroll
slow
fast
+/-
esc
set tempo
stop
#----------------------------------PLEASE NOTE---------------------------------#
#This file is the author's own work and represents their interpretation of the #
#song. You may only use this file for private study, scholarship, or research. #
#------------------------------------------------------------------------------##

                                   CHERUB ROCK
                        As recorded by Smashing Pumpkins
                       (From the 1993 Album SIAMESE DREAM)

Transcribed by : Kurt_Cobain_67

           C                    G                   D5                    A
      x 3 2 0 x x          3 2 0 0 x x          x x 0 2 3 x          x 0 2 2 2 x

Gtr I (E A D G B E) - 'Gtr 1'
Gtr II (E A D G B E) - 'Gtr 2'
Gtr III (E A D G B E) - 'Gtr 3'
Gtr IV (E A D G B E) - 'Gtr 4'
Gtr V (E A D G B E) - 'Gtr 5'
Gtr VI (E A D G B E) - 'Gtr 6'

 
[Intro]
 
  Moderately Slow Q=84
                      N.C.(E)
 4/4        2/4      4/4
  Gtr I
  W          H        S S S S S S S S +S  S S S S S S S   6x
e|----------|------||--------------------------------------||
B|----------|------||o------------------------------------o||
G|----------|------||----9-9---9-9---9-(9)-9-9---9-9-9-----||
D|----------|------||--------------------------------------||
A|----------|------||o---7-7---7-7---7-(7)-7-7---7-7-7----o||
E|----------|------||--0-----0-----0-----------0-------0---||


   N.C.(E)
   Gtr II
   S S S S S S S S +S  S S S S S S S   S S S S S S S S +S  S S S S S S S
e|-----------------------------------|------------------------------------|
B|-----------------------------------|------------------------------------|
G|---9-9---9-9---9-(9)-9-9---9-9-9---|-9-9-9---9-9---9-(9)-9-9---9-9-9----|
D|---x-x---x-x---x-----x-x---x-x-x---|-x-x-x---x-x---x-----x-x---x-x-x----|
A|---7-7---7-7---7-(7)-7-7-7-7-7-7---|-7-7-7---7-7---7-(7)-7-7---7-7-7----|
E|-0-0-0-0-0-0-0---------0-0-0-0-0-0-|-0-0-0-0-0-0-0-------0---0-0-0-0-0--|
 |
 | Gtr III
 | S S S S S S S S +S  S S S S S S S   S S S S S S S S +S  S S S S S S S
e|-----------------------------------|------------------------------------|
B|-----------------------------------|------------------------------------|
G|---9-9---9-9---9-(9)-9-9---9-9-9---|---9-9---9-9---9-(9)-9-9---9-9-9----|
D|---x-x---x-x---x-----x-x---x-x-x---|---x-x---x-x---x-----x-x---x-x-x----|
A|---7-7---7-7---7-(7)-7-7---7-7-7---|---7-7---7-7---7-(7)-7-7---7-7-7----|
E|-0-0---0-----0-----------0-------0-|-0-----0-----0-----------0-0-0-0-0--|


   N.C.(E)
   S S S S S S S S +S  S S S S S S S   S S S S S S S S +S  S S S S S S S
e|-----------------------------------|------------------------------------|
B|-----------------------------------|------------------------------------|
G|---9-9---9-9---9-(9)-9-9---9-9-9---|-9-9-9---9-9---9-(9)-9-9---9-9-9----|
D|---x-x---x-x---x-----x-x---x-x-x---|-x-x-x---x-x---x-----x-x---x-x-x----|
A|---7-7---7-7---7-(7)-7-7-7-7-7-7---|-7-7-7---7-7---7-(7)-7-7---7-7-7----|
E|-0-0-0-0-0-0-0---------0-0-0-0-0-0-|-0-0-0-0-0-0-0-------0---0-0-0-0-0--|
 |
 | S S S S S S S S +S  S S S S S S S   S S S S S S S S +S  S S S S S S S
e|-----------------------------------|------------------------------------|
B|-----------------------------------|------------------------------------|
G|---9-9---9-9---9-(9)-9-9---9-9-9---|---9-9---9-9---9-(9)-9-9---9-9-9----|
D|---x-x---x-x---x-----x-x---x-x-x---|---x-x---x-x---x-----x-x---x-x-x----|
A|---7-7---7-7---7-(7)-7-7---7-7-7---|---7-7---7-7---7-(7)-7-7---7-7-7----|
E|-0-----0-----0-----------0-------0-|-0-----0-----0-----------0-------0--|


   (E)
   S  S  S S  S  S S  S  +S   S  S S  S  S  S S
e|----------------------------------------------|
B|----------------------------------------------|
G|----9--9----9--9----9--(9)--9--9----9--9--9---|
D|----x--x----x--x----x-------x--x----x--x--x---|
A|----7--7----7--7----7--(7)--7--7-7--7--7--7---|
E|-0--0--0-0--0--0-0-------------0-0--0--0--0-0-|
 |
 | S  S  S S  S  S S  S  +S   S  S S  S  S  S S
e|----------------------------------------------|
B|----------------------------------------------|
G|---13-13---13-13---13-(13)-13------13-13-13---|
D|----x--x----x--x----x-------x-------x--x--x---|
A|---11-11---11-11---11-(11)-11-11---11-11-11---|
E|-0--0----0-------0-------------0-0--------0-0-|


   S  S  S S  S  S S  S  +S  S S  S  S S S S
e|--------------------------------------------|
B|--------------------------------------------|
G|-9--9--9----9--9----9--(9)-9-9-----9-9-9----|
D|-x--x--x----x--x----x------x-x-----x-x-x----|
A|-7--7--7----7--7----7--(7)-7-7-----7-7-7----|
E|-0--0--0-0--0--0-0---------0----0--0-0-0-0--|
 | 
 | S  S  S S  S  S S  S  +E    S  S  S S S S
e|--------------------------------------------|
B|--------------------------------------------|
G|---16-16------16---16-(16)------------------|
D|----x--x-------x----x-----------------------|
A|---14-14---14-14---14-(14)-------------0-0--|
E|-0--0--0-0-----0-0-----------0-12s16s7-0-0--|


   (E)
                     ~~~~~~~
    S S S S  S  S S  S  +S  S S S  S S S S
e|-----------------------------------------|
B|-----------------------------------------|
G|-11s9-----13s14---13-(13)-------11s9-----|
D|--x--------x-------x-------------x-------|
A|--9s7-----11s12---11-(11)--------9s7-----|
E|------0-0-------0---------0-0-0------0-0-|
 |
 |  S S S S  S  S S  S  +S  S S S  S S S S
e|-----------------------------------------|
B|-----------------------------------------|
G|-11s9-----13s14---13-(13)-------11s9-----|
D|--x--------x-------x-------------x-------|
A|--9s7-----11s12---11-(11)--------9s7-----|
E|------0-0-------0---------0-0-0------0-0-|


                     ~~~~~~~
    S S S S  S  S S  S  +S  S S S  S S S  S
e|-------------------------------------------|
B|-------------------------------------------|
G|-11s9-----13s14---13-(13)-------11s9-------|
D|--x--------x-------x-------------x---------|
A|--9s7-----11s12---11-(11)--------9s7----9--|
E|------0-0-------0---------0-0-0------0-10--|
 |
 |  S S S S  S  S S  S  +S  S S S  S S S  S
e|-------------------------------------------|
B|-------------------------------------------|
G|-11s9-----13s14---13-(13)-------11s9-------|
D|--x--------x-------x-------------x---------|
A|--9s7-----11s12---11-(11)--------9s7----0--|
E|------0-0-------0---------0-0-0------0--0--|


   D        A
    Q   E S  S  +S   S  S  S S  S S S
e|------------------------------------|
B|----------10-(10)-------------------|
G|-11--11----9-------9--9-------------|
D|--x---x---11-(11)-11-11-11----------|
A|--9---9-0--0--(0)--0--0--0----------|
E|-10--10-0------------------9s14-0-0-|
 |
 |  Q   E S  S  +S   S  S  S S  S S S
e|--2---------------------------------|
B|--3---3----2--(2)--2----------------|
G|--2---2----2--(2)--2--2--2-2--2-----|
D|--0---0----2--(2)--2--2--2-2--2-----|
A|--0-----0--0--(0)--0--0--0-0--0-0-0-|
E|--------0-----------------------0-0-|


   (E)
                     ~~~~~~~
    S S S S  S  S S  S  +S  S S S  S S S S
e|------------------------------------------|
B|------------------------------------------|
G|-11s9-----13s14---13-(13)-------11s9------|
D|--x--------x-------x-------------x--------|
A|--9s7-----11s12---11-(11)--------9s7------|
E|------0-0-------0---------0-0-0------0-0--|
 |
 |  S S S S  S  S S  S  +S  S S S  S S S S
e|------------------------------------------|
B|------------------------------------------|
G|-11s9-----13s14---13-(13)-------11s9------|
D|--x--------x-------x-------------x--------|
A|--9s7-----11s12---11-(11)--------9s7------|
E|------0-0-------0---------0-0-0------0-0--|


   (E)
                         ~~~~          ~~~~
    S S S S  S  S S  S  +S  S S S  E  +E
e|----------------------------------------|
B|----------------------------------------|
G|-11s9-----13s14---13-(13)-------11-(11)-|
D|--x--------x-------x-------------x------|
A|--9s7-----11s12---11-(11)--------9--(9)-|
E|------0-0-------0---------0-0-0---------|
 |
 |  S S S S  S  S S  S  +S  S S S  Q
e|----------------------------------------|
B|----------------------------------------|
G|-11s9-----13s14---13-(13)-------11------|
D|--x--------x-------x-------------x------|
A|--9s7-----11s12---11-(11)--------9------|
E|------0-0-------0---------0-0-0---------|


                       ~~~~          ~~~~                     ~~~~          ~~~~
    E S S  S  S S  S  +S  S S S  E  +E     E S S  S  S S  S  +S  S S S  E  +E
e|--------------------------------------|---------------------------------------|
B|--------------------------------------|---------------------------------------|
G|-13-----13s14---13-(13)-------11-(11)-|-13-----13s14---13-(13)-------11-(11)--|
D|--x------x-------x-------------x------|--x------x-------x-------------x-------|
A|-11-----11s12---11-(11)--------9--(9)-|-11-----11s12---11-(11)--------9--(9)--|
E|--0-0-0-------0---------0-0-0---------|--0-0-0-------0---------0-0-0----------|
 |
 |  E S S  S  S S  S  +S  S S S  Q         E S S  S  S S  S  +S  S S S  Q
e|--------------------------------------|---------------------------------------|
B|--------------------------------------|---------------------------------------|
G|--------13s14---13-(13)-------11------|--------13s14---13-(13)-------11-------|
D|---------x-------x-------------x------|---------x-------x-------------x-------|
A|-11-----11s12---11-(11)--------9------|-11-----11s12---11-(11)--------9-------|
E|--0-0-0-------0---------0-0-0---------|--0-0-0-------0---------0-0-0----------|


[Verses 1 & 2]
 
     (E)
                         ~~~~          ~~~~
      E S S  S  S S  S  +S  S S S  E  +E
e||---------------------------------------|
B||o--------------------------------------|
G||--13-----13s14---13-(13)-------11-(11)-|
D||---x------x-------x-------------x------|
A||o-11-----11s12---11-(11)--------9--(9)-|
E||---0-0-0-------0---------0-0-0---------|
 |
 |    E S S  S  S S  S  +S  S S S  Q
e||---------------------------------------|
B||o--------------------------------------|
G||---------13s14---13-(13)-------11------|
D||----------x-------x-------------x------|
A||o-11-----11s12---11-(11)--------9------|
E||---0-0-0-------0---------0-0-0---------|

                                         1.,2.
                                         D        A
                       ~~~~      ~~
    E S S  S  S S  S  +S  S S S  E S S    Q   E S  S  +S   S  S  S S  S S S  3x
e|-------------------------------------|-------------------------------------||
B|-------------------------------------|----------10-(10)-------------------o||
G|-13-----13s14---13-(13)-------11-----|-11--11----9-------9--9--------------||
D|--x------x-------x-------------x-----|--x---x---11-(11)-11-11-11-----------||
A|-11-----11s12---11-(11)--------9-----|--9---9-0--0--(0)--0--0--0----------o||
E|--0-0-0-------0---------0-0-0----0-0-|-10--10-0------------------9s14-0-0--||
 |
 |  E S S  S  S S  S  +S  S S S  E S S    Q   E S  S  +S   S  S  S S  S S S  3x
e|-------------------------------------|--2----------------------------------||
B|-------------------------------------|--3---3----2--(2)--2----------------o||
G|--------13s14---13-(13)-------11-----|--2---2----2--(2)--2--2--2-2--2------||
D|---------x-------x-------------x-----|--0---0----2--(2)--2--2--2-2--2------||
A|-11-----11s12---11-(11)--------9---0-|--0-----0--0--(0)--0--0--0-0--0-0-0-o||
E|--0-0-0-------0---------0-0-0----0-0-|--------0-----------------------0-0--||


   3.
                                                       To Coda
   D        A                      C       G
   Gtr II
    Q   E S S +S  S S S S S S S    Q   E S S +S  S S S S  S S S
e|------------------------------||-------------------------------|
B|------------------------------||-------------------------------|
G|-11--11---6-(6)-6-6-6-6-6-----||-9---9---4-(4)-4-4-4-4---------|
D|--x---x---x-----x-x-x-x-x-----||-x---x---x-----x-x-x-x---------|
A|--9---9-0-4-(4)-4-4-4-4-4-----||-7---7-0-2-(2)-2-2-2-2--2------|
E|-10--10-0-5-(5)-5-5-5-5-5-0-0-||-8---8-0-3-(3)-3-3-3-3--3-0-0--|
 |
 | Gtr III
 |  Q   E S S +S  S S S S S S S    Q   E S S +S  S S S S  S S S
e|--2---------------------------||-------------------------------|
B|--3---3---2-(2)-2-------------||-1-----------------------------|
G|--2---2---2-(2)-2-2-2-2-2-----||-0---0---0-(0)-0-0-0-0--0------|
D|--0---0---2-(2)-2-2-2-2-2-----||-2---2---0-(0)-0-0-0-0--0------|
A|--0-----0-0-(0)-0-0-0-0-0-2-2-||-3---3-0-2-(2)-2-2-2-2--2-0-0--|
E|--------0-----------------0-0-||-------0-3-(3)-3-3-3-3--3-0-0--|
 |
 | Gtr IV
 |  W                              H.                  E.     S
e|------------------------------||-------------------------------|
B|------------------------------||-------------------------------|
G|------------------------------||----------------------------x--|
D|------------------------------||----------------------------x--|
A|------------------------------||----------------------------x--|
E|------------------------------||-------------------------------|


[Chorus]
                                    1.,2.
     D          A                   C        G
      Q   E S S +S  S S S S S S S   Q  E S S +S  S S S S S S S   3x
e||-------------------------------|------------------------------||
B||o------------------------------|-----------------------------o||
G||--11--11---6-(6)-6-6-6-6-6-----|-9--9---4-(4)-4-4-4-4---------||
D||---x---x---x-----x-x-x-x-x-----|-x--x---x-----x-x-x-x---------||
A||o--9---9-0-4-(4)-4-4-4-4-4-----|-7--7-0-2-(2)-2-2-2-2-2------o||
E||--10--10-0-5-(5)-5-5-5-5-5-0-0-|-8--8-0-3-(3)-3-3-3-3-3-0-0---||
 |
 |    Q   E S S +S  S S S S S S S   Q  E S S +S  S S S S S S S   3x
e||---2---------------------------|------------------------------||
B||o--3---3---2-(2)-2-------------|-1---------------------------o||
G||---2---2---2-(2)-2-2-2-2-2-----|-0--0---0-(0)-0-0-0-0-0-------||
D||---0---0---2-(2)-2-2-2-2-2-----|-2--2---0-(0)-0-0-0-0-0-------||
A||o--0-----0-0-(0)-0-0-0-0-0-2-2-|-3--3-0-2-(2)-2-2-2-2-2-0-0--o||
E||---------0-----------------0-0-|------0-3-(3)-3-3-3-3-3-0-0---||
 |
 |    Q   E S S +S  S S S S S S S   Q  E S S +S  S S S S S S S   3x
e||-------------------------------|------------------------------||
B||o-^3---3---2-(2)---------------|-----------------------------o||
G||--^2---2---2-(2)---------------|-0--0-------------------------||
D||--^0---0-0-2-(2)-2-2-2-2-----2-|-2--2---0-(0)-----------------||
A||o--------0-0-(0)-0-0-0-0-0-2-2-|-3--3---2-(2)-2-2-2-2-2-3-0--o||
E||-------------------------------|------0-3-(3)-3-3-3-3-3---0---||


[Verse]
   3.
   C                          (E)
                                                    ~~~~
   E S S E S S E S S E S S     S S S S  S  S S  S  +S  S S S  S S S S
e|-------------------------||-----------------------------------------|
B|-------------------------||-----------------------------------------|
G|-9-9-9-9-9-9-9-9-9-9-----||-11s9-----13s14---13-(13)-------11s9-----|
D|-x-x-x-x-x-x-x-x-x-x-----||--x--------x-------x-------------x-------|
A|-7-7-7-7-7-7-7-7-7-7-----||--9s7-----11s12---11-(11)--------9s7-----|
E|-8-8-8-8-8-8-8-8-8-8-0-0-||------0-0-------0---------0-0-0------0-0-|
 |
 | E S S E S S E S S E S S     S S S S  S  S S  S  +S  S S S  S S S S
e|-------------------------||-----------------------------------------|
B|-1-----1-----1-----1-----||-----------------------------------------|
G|-0-0-0-0-0-0-0-0-0-0-----||-11s9-----13s14---13-(13)-------11s9-----|
D|-2-2-2-2-2-2-2-2-2-2-----||--x--------x-------x-------------x-------|
A|-3-3-3-3-3-3-3-3-3-3-0-0-||--9s7-----11s12---11-(11)--------9s7-----|
E|---------------------0-0-||------0-0-------0---------0-0-0------0-0-|
|
 | E S S E S S E S S E S S     W
e|-------------------------||-----------------------------------------|
B|-1-----1-----1-----1-----||-----------------------------------------|
G|-0-----0-----0-----0-----||-----------------------------------------|
D|-2-2-2-2-2-2-2-2-2-2-----||-----------------------------------------|
A|-3-3-3-3-3-3-3-3-3-3-0-0-||-----------------------------------------|
E|---------------------0-0-||-----------------------------------------|


   (E)
   Gtr II
                         ~~~~          ~~~~
    S S S S  S  S S  S  +S  S S S  E  +E
e|----------------------------------------|
B|----------------------------------------|
G|-11s9-----13s14---13-(13)-------16-(16)-|
D|--x--------x-------x-------------x------|
A|--9s7-----11s12---11-(11)-------14-(14)-|
E|------0-0-------0---------0-0-0---------|
 |
 | Gtr III
 |  S S S S  S  S S  S  +S  S S S  Q
e|----------------------------------------|
B|----------------------------------------|
G|-11s9-----13s14---13-(13)-------11------|
D|--x--------x-------x-------------x------|
A|--9s7-----11s12---11-(11)--------9------|
E|------0-0-------0---------0-0-0---------|


                                                                   D.S. al Coda
                       ~~~~          ~~~~                     ~~~~          ~~~~
    E S S  S  S S  S  +S  S S S  E  +E     E S S  S  S S  S  +S  S S S  E  +E
e|--------------------------------------|---------------------------------------|
B|--------------------------------------|---------------------------------------|
G|-13-----13s14---13-(13)-------16-(16)-|-13-----13s14---13-(13)-------11-(11)--|
D|--x------x-------x-------------x------|--x------x-------x-------------x-------|
A|-11-----11s12---11-(11)-------14-(14)-|-11-----11s12---11-(11)--------9--(9)--|
E|--0-0-0-------0---------0-0-0---------|--0-0-0-------0---------0-0-0----------|
 |
 |  E S S  S  S S  S  +S  S S S  Q         E S S  S  S S  S  +S  S S S  Q
e|--------------------------------------|---------------------------------------|
B|--------------------------------------|---------------------------------------|
G|--------13s14---13-(13)-------11------|--------13s14---13-(13)-------11-------|
D|---------x-------x-------------x------|-----------------x-------------x-------|
A|-11-----11s12---11-(11)--------9------|-11-----11s12---11-(11)--------9-------|
E|--0-0-0-------0---------0-0-0---------|--0-0-0-------0---------0-0-0----------|


[Chorus]
                                   1.,2.
    &
    D          A                   C        G
    Gtr II
     Q   E S S +S  S S S S S S S   Q  E S S +S  S S S S S S S   3x
e||-------------------------------|------------------------------||
B||o------------------------------|-----------------------------o||
G||--11--11---6-(6)-6-6-6-6-6-----|-9--9---4-(4)-4-4-4-4---------||
D||---x---x---x-----x-x-x-x-x-----|-x--x---x-----x-x-x-x---------||
A||o--9---9-0-4-(4)-4-4-4-4-4-----|-7--7-0-2-(2)-2-2-2-2-2------o||
E||--10--10-0-5-(5)-5-5-5-5-5-0-0-|-8--8-0-3-(3)-3-3-3-3-3-0-0---||
 |
 |   Gtr III
 |    Q   E S S +S  S S S S S S S   Q  E S S +S  S S S S S S S   3x
e||---2---------------------------|------------------------------||
B||o--3---3---2-(2)-2-------------|-1---------------------------o||
G||---2---2---2-(2)-2-2-2-2-2-----|-0--0---0-(0)-0-0-0-0-0-------||
D||---0---0---2-(2)-2-2-2-2-2-----|-2--2---0-(0)-0-0-0-0-0-------||
A||o--0-----0-0-(0)-0-0-0-0-0-2-2-|-3--3-0-2-(2)-2-2-2-2-2-0-0--o||
E||---------0-----------------0-0-|------0-3-(3)-3-3-3-3-3-0-0---||
 |
 |   Gtr IV
 |    Q   E S S +S  S S S S S S S   Q  E S S +S  S S S S S S S   3x
e||-------------------------------|------------------------------||
B||o-^3---3---2-(2)---------------|-----------------------------o||
G||--^2---2---2-(2)---------------|-0--0-------------------------||
D||--^0---0-0-2-(2)-2-2-2-2-----2-|-2--2---0-(0)-----------------||
A||o--------0-0-(0)-0-0-0-0-0-2-2-|-3--3---2-(2)-2-2-2-2-2-3-0--o||
E||-------------------------------|------0-3-(3)-3-3-3-3-3---0---||


[Bridge]
   3.
   C                 G         E                              D
   E S S E S S E S S E S S      E  S  S  E  S  S  +S   S  S S  E  S S
e|-------------------------||-----------------------------------------|
B|-------------------------||o----------------------------------------|
G|-9-9-9-9-9-9-9-9-9-4-----||-----------------------------------------|
D|-x-x-x-x-x-x-x-x-x-x-----||---------------------------------12------|
A|-7-7-7-7-7-7-7-7-7-2-0-0-||o-11-11-11-11-11-11-(11)-11-11---12-12---|
E|-8-8-8-8-8-8-8-8-8-3-0-0-||---0--0--0--0--0--0--(0)--0--0-0-10-10-0-|
 |
 | E S S E S S E S S E S S      E  S  S  E  S  S  +S   S  S S  E  S S
e|-------------------------||----------------------------------2------|
B|-1-----1-----1-----------||o---------------------------------3--3---|
G|-0-----0-----0-----0-----||---1--------1-----1--(1)----------2--2---|
D|-2-2-2-2-2-2-2-2-2-0-0---||---2--2--2--2--2--2--(2)--2--2----0--0-0-|
A|-3-3-3-3-3-3-3-3-3-2-2-0-||o--2--2--2--2--2--2--(2)--2--2-0-----0-0-|
E|-------------------3-3-0-||---0--0--0--0--0--0--(0)--0--0-0---------|
 |
 | E S S E S S E S S Q          E  S  S  E  S  S  +S   S  S S  E  S S
e|-------------------------||----------------------------------2------|
B|-1-----1-----1-----------||o---------------------------------3--3---|
G|-0-----0-----0-----------||---1--------1-----1--(1)----------2--2---|
D|-2-2-2-2-2-2-2-2-2-0-----||---2--2--2--2--2--2--(2)--2--2----0--0-0-|
A|-3-3-3-3-3-3-3-3-3-2-----||o--2--2--2--2--2--2--(2)--2--2-0-----0-0-|
E|-------------------3-----||---0--0--0--0--0--0--(0)--0--0-0---------|


   A           C               C
    Q   E S  S  +S   S  S S  S  S  S S   4x
e|---------------------------------------||
B|--------------------------------------o||
G|---------------------------------------||
D|-11--11---10-(10)-10-10---12-12-12-----||
A|--0---0-0-10-(10)-10-10---10-10-10-0--o||
E|--------0--8--(8)--8--8-0-10-10-10-0---||
 |
 |  Q   E S  S  +S   S  S S  S  S  S S   4x
e|---------------------------------------||
B|--2--------1--(1)---------------------o||
G|--2---2----0--(0)--0--0----0--0--------||
D|--2---2----2--(2)--2--2----0--0--0-----||
A|--0---0-0--3--(3)--3--3-0--2--2--2----o||
E|--------0---------------0--3--3--3-0---||
|
 |  Q   E S  S  +S   S  S S  S  S  S S   4x
e|---------------------------------------||
B|--2--------1--(1)---------------------o||
G|--2---2----0--(0)--0--0----0--0--------||
D|--2---2----2--(2)--2--2----0--0--0-----||
A|--0---0-0--3--(3)--3--3-0--2--2--2----o||
E|--------0---------------0--3--3--3-0---||


[Interlude]

   (E)
   Gtr II
   S S S S S S S S +S  S S S S S S S
e|-----------------------------------|
B|-----------------------------------|
G|---9-9---9-9---9-(9)-9-9---9-9-9---|
D|---x-x---x-x---x-----x-x---x-x-x---|
A|---7-7---7-7---7-(7)-7-7-7-7-7-7---|
E|-0-0-0-0-0-0-0---------0-0-0-0-0-0-|
 |
 | Gtr III
 | S S S S S S S S +S  S S S S S S S
e|-----------------------------------|
B|-----------------------------------|
G|---9-9---9-9---9-(9)-9-9---9-9-9---|
D|---x-x---x-x---x-----x-x---x-x-x---|
A|---7-7---7-7---7-(7)-7-7---7-7-7---|
E|-0-----0-----0-----------0-------0-|


   S  S  S S  S  S S  S  +S   S  S S  S  S  S S
e|-----------------------------------------------|
B|-----------------------------------------------|
G|-9--9--9----9--9----9--(9)--9--9----9--9--9----|
D|-x--x--x----x--x----x-------x--x----x--x--x----|
A|-7--7--7----7--7----7--(7)--7--7----7--7--7----|
E|-0--0--0-0--0--0-0----------0----0--0--0--0-0--|
 |
 | S  S  S S  S  S S  S  +S   S  S S  S  S  S S
e|-----------------------------------------------|
B|-----------------------------------------------|
G|---13-13---13-13---13-(13)-13------13-13-13----|
D|----x--x----x--x----x-------x-------x--x--x----|
A|---11-11---11-11---11-(11)-11-11---11-11-11----|
E|-0--0----0-------0-------------0-0--------0-0--|


   (E)
   Gtr II
   S  S  S S  S  S S  S  +S  S  S S  S  S  S S
e|---------------------------------------------|
B|---------------------------------------------|
G|----9--9----9--9----9--(9)-9--9----9--9--9---|
D|----x--x----x--x----x------x--x----x--x--x---|
A|----7--7----7--7----7--(7)-7--7-7--7--7--7---|
E|-0--0--0-0--0--0-0------------0-0--0--0--0-0-|
 |
 | Gtr III
 | S  S  S S  S  S S  S  +S  S  S S  S  S  S S
e|---------------------------------------------|
B|---------------------------------------------|
G|---16-16---16-16---16-(16)---16---16-16-16---|
D|----x--x----x--x----x---------x----x--x--x---|
A|---14-14---14-14---14-(14)---14---14-14-14---|
E|-0-----0-0--0----0---------0----0----------0-|
 |
 | Gtr V
 | W
e|---------------------------------------------|
B|---------------------------------------------|
G|---------------------------------------------|
D|---------------------------------------------|
A|---------------------------------------------|
E|---------------------------------------------|


   S  S  S S  S  S S  S  +S  S  S  S   S   S  S  S
e|--------------------------------------------------|
B|--------------------------------------------------|
G|-9--9--9----9--9----9--(9)-9--9------9---9--9-----|
D|-x--x--x----x--x----x------x--x------x---x--x-----|
A|-7--7--7----7--7----7--(7)-7--7------7---7--7-----|
E|-0--0--0-0--0--0-0---------0-----0---0---0--0--0--|
 |
 | S  S  S S  S  S S  S  +S  S  S  S   S   S  S  S
e|--------------------------------------------------|
B|--------------------------------------------------|
G|---19-19---19-19---21-(21)---21-21----------------|
D|----x--x----x--x----x---------x--x----------------|
A|---17-17---17-17---19-(19)---19-19--19---0--0--0--|
E|-0-------0-------0---------0---------0---0--0--0--|
 |
 | H                      S  S  E     +S   S  e
e|--------------------------------------------------|
B|--------------------------------------------------|
G|--------------------------------------------------|
D|--------------------------------------------------|
A|--------------------------------------------------|
E|---------------------------x-19----(19)s12S16\----|


[Solo]

   D                  A                                   (E)
   Gtr V
                ~~~~~~~~~~~~                                                                        ~~~
    Q.         +E      +S    S   S   S   E   E         E.   +S   S  S  S  S     +E.      +S   E.     S
e|-------------------------------------------------|---------------------19b21-(19)-----(19)-19--------|
B|-15b17======(15)----(15)r-----(x)---------19pb21=|=[19]r=(19)-17-19-17-------------------------------|
G|--------------------------(x)-(x)-(x)-(x)--------|---------------------------------------------------|
D|--------------------------(x)-----(x)------------|---------------------------------------------------|
A|-------------------------------------------------|---------------------------------------------------|
E|-------------------------------------------------|---------------------------------------------------|
 |
 | Gtr II
 |  Q       E   S   S  +S    S   S   S   S  S  S  S   S  S S  S  S  S  S  S     +S  S S   S   S  S S S
e|--------------------------------------------------|--------------------------------------------------|
B|-----------------10-(10)--------------------------|--------------------------------------------------|
G|-11------11-------9--------9---9------------------|----9-9-----9--9-----9-----(9)-9-9-------9--9-9---|
D|--x-------x------11-(11)--11--11--11--------------|----x-x-----x--x-----x---------x-x-------x--x-x---|
A|--9-------9---0---0--(0)---0---0---0--------------|----7-7-----7--7-----7-----(7)-7-7---7---7--7-7---|
E|-10------10---0------------------------9s14--0--0-|-0--0-0--0--0--0--0--------------0---0---0--0-0-0-|
 |
 | Gtr III
 |  Q       E   S   S  +S    S   S   S   S  S  S  S   S  S S S   S  S  S  S     +S  S S   S   S  S S S
e|--2-----------------------------------------------|--------------------------------------------------|
B|--3-------3-------2--(2)---2----------------------|--------------------------------------------------|
G|--2-------2-------2--(2)---2---2---2---2--2-------|----9-9-----9--9-----9-----(9)-9-9-------9s11-----|
D|--0-------0-------2--(2)---2---2---2---2--2-------|----x-x-----x--x-----x---------x-x-------x--------|
A|--0-----------0---0--(0)---0---0---0---0--0-------|----7-7-----7--7-----7-----(7)-7-7-------7s=9-----|
E|--------------0------------------------------0--0-|-0------0---------0------------------0--------0-0-|


     D                    A
                                                    ~~~~~~~~~
   a  S  S  S  S  S  S  S  S      +E      +S       +S   +S    S   S       +S
e|---17-19-19p16-17-16---------------------------------------------------------|
B|-x-------------------17-17b19==(17)----(17)b21==(17)-(17)r----[14]b15==(14)--|
G|-----------------------------------------------------------------------------|
D|-----------------------------------------------------------------------------|
A|-----------------------------------------------------------------------------|
E|-----------------------------------------------------------------------------|
 |
 |    Q           E     S  S      +S   S   S        S    S    S   S        S
e|-----------------------------------------------------------------------------|
B|------------------------10-----(10)------------------------------------------|
G|---11----------11--------9-----------9---9-----------------------------------|
D|----x-----------x-------11-----(11)-11--11-------11--------------------------|
A|----9-----------9-----0--0------(0)--0---0--------0--------------------------|
E|---10----------10-----0--------------------------------9s==14---0--------0---|
 |
 |    Q           E     S  S      +S   S   S        S    S    S   S        S
e|----2------------------------------------------------------------------------|
B|----3-----------3--------2------(2)--2---------------------------------------|
G|----2-----------2--------2------(2)--2---2--------2----2----2----------------|
D|----0-----------0--------2------(2)--2---2--------2----2----2----------------|
A|----0-----------------0--0------(0)--0---0--------0----0----0----------------|
E|----------------------0-----------------------------------------0--------0---|


   (E)
     ~~~~~
    +Q         E    S  S     +E    +E     S  S   S.    T
e|-------------------------------------------------------|
B|-(14)r----------------------------------------------12h|
G|-------------------------------------------------------|
D|-------------x\------------------------(x)----(x)------|
A|---------------------------------------(x)(x)-(x)------|
E|--------------------[9]b10-(9)---(9)------(x)----------|
 |
 |   S   S S S S  S S  S     +S  S  S  S  S  S   S  S
e|-------------------------------------------------------|
B|-------------------------------------------------------|
G|-------9-9---9--9----9-----(9)-9--9-----9--9---9-------|
D|-------x-x---x--x----x---------x--x-----x--x---x-------|
A|-------7-7---7--7----7-----(7)-7--7--7--7--7---7-------|
E|---0---0-0-0-0--0-0---------------0--0--0--0---0--0----|
 |
 |   S   S S S S  S S  S     +S  S  S  S  S  S   S  S
e|-------------------------------------------------------|
B|-------------------------------------------------------|
G|-------9-9---9--9----9-----(9)---13s11-11s=9-----------|
D|-------x-x---x--x----x------------x-----x--------------|
A|-------7-7---7--7----7-----(7)---11s=9--9s=7------0----|
E|---0-------0------0------------0---------------0--0----|


   D                              A
          ~~~~~~~~
    T  T  S  +S   S  T  T T  T  S  S  +E      +S        +S  S  S S  S
e|----------------------------------------------------------------------|
B|-15p12----------------------------------------------------------------|
G|-------13-(13)p11h13p11s9s11h13p11-(11)----(11)b12.5-(11)-------------|
D|----------------------------------------------------------x-----------|
A|----------------------------------------------------------x--x-x-(x)--|
E|-------------------------------------------------------------x-x-(x)--|
 |
 |  Q                E          S  S  +S   S   S         S  S  S S  S
e|----------------------------------------------------------------------|
B|--------------------------------10-(10)-------------------------------|
G|-11---------------11-------------9-------9---9------------------------|
D|--x----------------x------------11-(11)-11--11--------11--------------|
A|--9----------------9----------0--0--(0)--0---0---------0--------------|
E|-10---------------10----------0---------------------------9s14-0--0---|
 |
 |  Q                E          S  S  +S   S   S         S  S  S S  S
e|--2-------------------------------------------------------------------|
B|--3----------------3-------------2--(2)--2----------------------------|
G|--2----------------2-------------2--(2)--2---2---------2--2--2--------|
D|--0----------------0-------------2--(2)--2---2---------2--2--2--------|
A|--0---------------------------0--0--(0)--0---0---------0--0--0--------|
E|------------------------------0--------------------------------0--0---|


   (E)
    W
                      ~~~~            ~~~~~~~
    T      +T   +S   +E    S S S     +S  +S   S S S  E.         +S
e|------------------------------------------------------------------|
B|------------------------------------------------------------------|
G|-11b13==(11)r(11)-(11)-----6h9pb11r(9)-(9)------------------------|
D|------------------------------------------------------------------|
A|-------------------------------------------11-9-7--9b11=======(9)-|
E|------------------------------------------------------------------|
 |
 |  S            S    S  S S S S      S  +S   S S S  S      S S  S
e|------------------------------------------------------------------|
B|------------------------------------------------------------------|
G|---------------9----9----9-9--------9--(9)--9-9----9------9-9-----|
D|---------------x----x----x-x--------x-------x-x----x------x-x-----|
A|---------------7----7----7-7--------7--(7)--7-7-7--7------7-7-----|
E|--0------------0----0--0-0-0-0----------------0-0--0------0-0--0--|
 |
 |  S            S    S  S S S S      S  +S   S S S  S      S S  S
e|------------------------------------------------------------------|
B|------------------------------------------------------------------|
G|---------------9----9----9-9--------9--(9)--9-9---14s====13-------|
D|---------------x----x----x-x--------x-------x-x----x--------------|
A|---------------7----7----7-7--------7--(7)--7-7---12s====11-------|
E|--0--------------------0-----0------------------0-----------0--0--|



  D                         A                                 C                             G
                                                              Gtr IV

                                                                                              ~~~~~~~
  +S  +S  +S   S  E +S      S +S  S  E   E  E   a       +Q    a   +S      +S   +S   S  +Q   +E.  S
e|--------------------------------------------|-----------------------------------------------------|
B|--------------------------------------------|-----------------------------------------------------|
G|---------------------------------------9-11-|(11)b12==(11)-(11)r(11)b12=(11)r(11)-----------------|
D|--------------------------------------------|-------------------------------------12-(12)-(12)s=7-|
A|(9)r(9)-(9)h11p=9-(9)b11rp7-(7)h9-11--------|-----------------------------------------------------|
E|--------------------------------------------|-----------------------------------------------------|
 |
 |  Q         E  S      S +S  S  S S S S  S S    Q      E             S   S  +S  S S S   S  S S S
e|--------------------------------------------|-----------------------------------------------------|
B|--------------------------------------------|-----------------------------------------------------|
G|-11---------11---------6-(6)-6--6-6-6-6-----|--9------9-----------------4--(4)-4-4-4---4----------|
D|--x----------x---------x-----x--x-x-x-x-----|--x------x-----------------x------x-x-x---x----------|
A|--9----------9--0------4-(4)-4--4-4-4-4-----|--7------7-------------0---2--(2)-2-2-2---2--2-0-0---|
E|-10---------10--0------5-(5)-5--5-5-5-5-0-0-|--8------8-------------0---3--(3)-3-3-3---3--3-0-0---|
 |
 |  Q         E  S      S +S  S  S S S S  S S     Q      E             S   S  +S  S S S   S  S S S
e|--2-----------------------------------------|-----------------------------------------------------|
B|--3---------3---------2-(2)-2---------------|---1-------------------------------------------------|
G|--2---------2---------2-(2)-2--2-2-2-2------|---0------0-----------------0--(0)-0-0-0---0--0------|
D|--0---------0---------2-(2)-2--2-2-2-2------|---2------2-----------------0--(0)-0-0-0---0--0------|
A|--0------------0------0-(0)-0--0-0-0-0------|---3------3-------------0---2--(2)-2-2-2---2--2-3-0--|
E|---------------0------------------------0-0-|------------------------0---3--(3)-3-3-3---3--3---0--|


[Verse]

  D5        A                     C                  G

   Gtr V                           Gtr VI
    >                                                     >
    ~~~                                                   ~~~~~~~~~~~~~~~~~~
   +W                               Q        +E   +E     +H
e|-------------------------------|-----------------------------------------|
B|-------------------------------|-15pb17===(15)r(15)---(15)---------------|
G|-------------------------------|-----------------------------------------|
D|-(7)---------------------------|-----------------------------------------|
A|-------------------------------|-----------------------------------------|
E|-------------------------------|-----------------------------------------|
 |
 | Gtr III
 |  Q    E S S +S  S S S S S S S    Q         E    S  S  +S  S S S S S S S
e|--2----------------------------|-----------------------------------------|
B|--3----3---2-(2)-2-------------|--1--------------------------------------|
G|--2----2---2-(2)-2-2-2-2-2-----|--0---------0-------0--(0)-0-0-0-0-0-----|
D|--0----0---2-(2)-2-2-2-2-2-----|--2---------2-------0--(0)-0-0-0-0-0-----|
A|--0------0-0-(0)-0-0-0-0-0-2-2-|--3---------3----0--2--(2)-2-2-2-2-2-3-0-|
E|---------0-----------------0-0-|-----------------0--3--(3)-3-3-3-3-3---0-|
 |
 | Gtr II
 |  Q    E S S +S  S S S S S S S    Q         E    S  S  +S  S S S S S S S
e|-------------------------------|-----------------------------------------|
B|-------------------------------|-----------------------------------------|
G|-11---11---6-(6)-6-6-6-6-6-----|--9---------9-------4--(4)-4-4-4-4-------|
D|--x----x---x-----x-x-x-x-x-----|--x---------x-------x------x-x-x-x-------|
A|--9----9-0-4-(4)-4-4-4-4-4-----|--7---------7----0--2--(2)-2-2-2-2-2-0-0-|
E|-10---10-0-5-(5)-5-5-5-5-5-0-0-|--8---------8----0--3--(3)-3-3-3-3-3-0-0-|


  D5          A

  ~~~~~~
    +Q    H.
e|---------------------------------|
B|-(15)----------------------------|
G|---------------------------------|
D|---------------------------------|
A|---------------------------------|
E|---------------------------------|
 |
 |   Q    E  S S +S  S S S S S S S
e|---2-----------------------------|
B|---3----3----2-(2)-2-------------|
G|---2----2----2-(2)-2-2-2-2-2-----|
D|---0----0----2-(2)-2-2-2-2-2-----|
A|---0-------0-0-(0)-0-0-0-0-0-2-2-|
E|-----------0-----------------0-0-|
 |
 |   Q    E  S S +S  S S S S S S S
e|---------------------------------|
B|---------------------------------|
G|--11---11----6-(6)-6-6-6-6-6-----|
D|---x----x----x-----x-x-x-x-x-----|
A|---9----9--0-4-(4)-4-4-4-4-4-----|
E|--10---10--0-5-(5)-5-5-5-5-5-0-0-|


  C              G                      D5       A

                >
    E.  S  +E   E    +Q        Q          W
e|-------------------------------------|------------------------------|
B|-------------------------------------|------------------------------|
G|-12--11-(11)-------------------------|------------------------------|
D|-------------12---(12)---------------|------------------------------|
A|-------------------------------------|------------------------------|
E|-------------------------------------|------------------------------|
 |
 |  Q       E   S S  +S  S S S S S S S    Q   E S S +S  S S S S S S S
e|-------------------------------------|--2---------------------------|
B|--1----------------------------------|--3---3---2-(2)-2-------------|
G|--0-------0-----0--(0)-0-0-0-0-0-----|--2---2---2-(2)-2-2-2-2-2-----|
D|--2-------2-----0--(0)-0-0-0-0-0-----|--0---0---2-(2)-2-2-2-2-2-----|
A|--3-------3---0-2--(2)-2-2-2-2-2-3-0-|--0-----0-0-(0)-0-0-0-0-0-2-2-|
E|--------------0-3--(3)-3-3-3-3-3---0-|--------0-----------------0-0-|
 |
 |  Q       E   S S  +S  S S S S S S S    Q   E S S +S  S S S S S S S
e|-------------------------------------|------------------------------|
B|-------------------------------------|------------------------------|
G|--9-------9-----4--(4)-4-4-4-4-------|-11--11---6-(6)-6-6-6-6-6-----|
D|--x-------x-----x------x-x-x-x-------|--x---x---x-----x-x-x-x-x-----|
A|--7-------7---0-2--(2)-2-2-2-2-2-0-0-|--9---9-0-4-(4)-4-4-4-4-4-----|
E|--8-------8---0-3--(3)-3-3-3-3-3-0-0-|-10--10-0-5-(5)-5-5-5-5-5-0-0-|


    C                  G                      D5         A
                            >                         <
                            ~~~~~~~~~~~~~~~~~~~~~~~~~~~~~~~~~~~~~~~~~~~~~~~
   a  Q        +E   +E     +H                   +Q    H                +Q
e|-------------------------------------------|--------------------------------------|
B|---15pb17===(15)r(15)---(15)---------------|-(15)---------------------------------|
G|-x-----------------------------------------|-------14---------------(14)----------|
D|-------------------------------------------|--------------------------------------|
A|-------------------------------------------|--------------------------------------|
E|-------------------------------------------|--------------------------------------|
 |
 |    Q         E    S  S  +S  S S S S S S S     Q    E S S +S  S S S   S  S S S
e|-------------------------------------------|---2----------------------------------|
B|----1--------------------------------------|---3----3---2-(2)-2-------------------|
G|----0---------0-------0--(0)-0-0-0-0-0-----|---2----2---2-(2)-2-2-2---2--2--------|
D|----2---------2-------0--(0)-0-0-0-0-0-----|---0----0---2-(2)-2-2-2---2--2--------|
A|----3---------3----0--2--(2)-2-2-2-2-2-3-0-|---0------0-0-(0)-0-0-0---0--0-2-2----|
E|-------------------0--3--(3)-3-3-3-3-3---0-|----------0--------------------0-0----|
 |
 |    Q         E    S  S  +S  S S S S S S S     Q    E S S +S  S S S   S  S S S
e|-------------------------------------------|--------------------------------------|
B|-------------------------------------------|--------------------------------------|
G|----9---------9-------4--(4)-4-4-4-4-------|--11---11---6-(6)-6-6-6---6--6--------|
D|----x---------x-------x------x-x-x-x-------|---x----x---x-----x-x-x---x--x--------|
A|----7---------7----0--2--(2)-2-2-2-2-2-0-0-|---9----9-0-4-(4)-4-4-4---4--4--------|
E|----8---------8----0--3--(3)-3-3-3-3-3-0-0-|--10---10-0-5-(5)-5-5-5---5--5-0-0----|


[Chorus]

  C         G                        D5                       A
     ~~~~~~~~~~~~~~~~~~~~~~~~~                                  ~~~~~~~~~~~~~~~~~~~
    +H.                   +E    E      E   E   S      +S   +S   S   +Q         +E    E
e|----------------------------------|----------------------------------------------------|
B|----------------------------------|---------15b17==(15)r(15)---------------------------|
G|-(14)------------------(14)-------|-----14---7b9====(7)r=(7)-14--(14)-------(14)---x---|
D|----------------------------------|-12--(7)------------------(7)--(7)--------(7)-------|
A|----------------------------------|-(5)------------------------------------------------|
E|----------------------------------|----------------------------------------------------|
 |                                     E   E   S      +S   +S   S   +Q         +E    E
 |
 |   Q   E S S +S  S S S   S  S S S    Q       E            S   S   +S  S S S   S  S S S
e|----------------------------------|--2-------------------------------------------------|
B|---1------------------------------|--3-------3----------------2---(2)-2----------------|
G|---0---0---0-(0)-0-0-0---0--0-----|--2-------2----------------2---(2)-2-2-2---2--2-----|
D|---2---2---0-(0)-0-0-0---0--0-----|--0-------0----------------2---(2)-2-2-2---2--2-----|
A|---3---3-0-2-(2)-2-2-2---2--2-3-0-|--0--------------------0---0---(0)-0-0-0---0--0-2-2-|
E|---------0-3-(3)-3-3-3---3--3---0-|-----------------------0------------------------0-0-|
 |
 |   Q   E S S +S  S S S   S  S S S    Q       E            S   S   +S  S S S   S  S S S
e|----------------------------------|----------------------------------------------------|
B|----------------------------------|----------------------------------------------------|
G|---9---9---4-(4)-4-4-4---4--------|-11------11----------------6---(6)-6-6-6---6--6-----|
D|---x---x---x-----x-x-x---x--------|--x-------x----------------x-------x-x-x---x--x-----|
A|---7---7-0-2-(2)-2-2-2---2--2-0-0-|--9-------9------------0---4---(4)-4-4-4---4--4-----|
E|---8---8-0-3-(3)-3-3-3---3--3-0-0-|-10------10------------0---5---(5)-5-5-5---5--5-0-0-|


         C                G
                                 ~~~~
    a      +E.  +S   +E.    S   +H
e|-------------------------------------------------|
B|-------------------------------------------------|
G|-11b12==(11)-(11)r(11)---------------------------|
D|--4b5====(4)--(4)r=(4)---12--(12)----------------|
A|-------------------------(5)--(5)----------------|
E|-------------------------------------------------|
 |  a      +E.  +S   +E.    S   +H
 |
 |          Q         E  S  S   +S  S S S S S S S
e|-------------------------------------------------|
B|----------1--------------------------------------|
G|----------0---------0-----0---(0)-0-0-0-0-0------|
D|----------2---------2-----0---(0)-0-0-0-0-0------|
A|----------3---------3--0--2---(2)-2-2-2-2-2-3-0--|
E|-----------------------0--3---(3)-3-3-3-3-3---0--|
 |
 |          Q         E  S  S   +S  S S S S S S S
e|-------------------------------------------------|
B|-------------------------------------------------|
G|----------9---------9-----4---(4)-4-4-4-4--------|
D|----------x---------x-----x-------x-x-x-x--------|
A|----------7---------7--0--2---(2)-2-2-2-2-2-0-0--|
E|----------8---------8--0--3---(3)-3-3-3-3-3-0-0--|

***************

  D5                       A                                  C            G
                             ~~~~~~~~~~~~~~~~~~~                              ~~~~~~~~~~~~~~~~~~~
    E   E   S      +S   +S   S   +Q         +E      a      +Q    +E.    +S   +Q     +E     S  S
e|-----------------------------------------------|----------------------------------------------|
B|---------15b17==(15)r(15)----------------------|-15b17==(15)--(15)r==(15)-(15)---(15)---------|
G|-----14---7b9====(7)r=(7)-14--(14)-------(14)--|-(7)b9===(7)---(7)r===(7)--(7)----(7)----x--x-|
D|-12--(7)------------------(7)--(7)--------(7)--|-----------------------------------------x--x-|
A|-(5)-------------------------------------------|----------------------------------------(x)---|
E|-----------------------------------------------|----------------------------------------------|
 |  E   E   S      +S   +S   S   +Q         +E    E      a      +Q    +E.    +S   +Q         +E     E
 |
 |  Q       E       S   S   +S  S S S   S  S S S       Q     E  S   S   +S  S S S   S  S  S  S
e|--2--------------------------------------------|---------------------------------------------|
B|--3-------3-----------2---(2)-2----------------|-----1---------------------------------------|
G|--2-------2-----------2---(2)-2-2-2---2--2-----|-----0-----0------0---(0)-0-0-0---0--0-------|
D|--0-------0-----------2---(2)-2-2-2---2--2-----|-----2-----2------0---(0)-0-0-0---0--0-------|
A|--0---------------0---0---(0)-0-0-0---0--0-2-2-|-----3-----3--0---2---(2)-2-2-2---2--2--3--0-|
E|------------------0------------------------0-0-|--------------0---3---(3)-3-3-3---3--3-----0-|
 |
 |  Q       E       S   S   +S  S S S   S  S S S       Q     E  S   S   +S  S S S   S  S  S  S
e|-----------------------------------------------|---------------------------------------------|
B|-----------------------------------------------|---------------------------------------------|
G|-11------11-----------6---(6)-6-6-6---6--6-----|-----9-----9------4---(4)-4-4-4---4----------|
D|--x-------x-----------x-------x-x-x---x--x-----|-----x-----x------x-------x-x-x---x----------|
A|--9-------9-------0---4---(4)-4-4-4---4--4-----|-----7-----7--0---2---(2)-2-2-2---2--2--0--0-|
E|-10------10-------0---5---(5)-5-5-5---5--5-0-0-|-----8-----8--0---3---(3)-3-3-3---3--3--0--0-|


           D5           A                                  C                    G
                           ~~~~~~~~                           ~~~~
     a       +Q    +E.     S   +E.     S   S    S    E        W
e|--17b19===(17)--(17)r===17--(17)--------15p==14---------|------------------------------|
B|--------------------------------------------------15----|------------------------------|
G|-(14)b16==(14)--(14)r==(14)-(14)-------(12)p(11)--------|--14--------------------------|
D|-------------------------------------------------(12)---|------------------------------|
A|--------------------------------------------------------|-(12)-------------------------|
E|--------------------------------------------------------|------------------------------|
 |   a       +Q    +E.     S   +E.     S   S    S    E        W
 |
 |            Q     E  S   S   +S  S S S   S    S    S  S     E  S S E S S E S S E E
e|------------2-------------------------------------------|------------------------------|
B|------------3-----3------2---(2)-2----------------------|---1------1-----1-------------|
G|------------2-----2------2---(2)-2-2-2---2----2---------|---0--0-0-0-0-0-0-0-0-0-------|
D|------------0-----0------2---(2)-2-2-2---2----2---------|---2--2-2-2-2-2-2-2-2-0-0-----|
A|------------0--------0---0---(0)-0-0-0---0----0----2--2-|---3--3-3-3-3-3-3-3-3-2-2-----|
E|---------------------0-----------------------------0--0-|----------------------3-3-----|
 |
 |            Q     E  S   S   +S  S S S   S    S    S  S     E  S S E S S E S S E S S
e|--------------------------------------------------------|------------------------------|
B|--------------------------------------------------------|------------------------------|
G|-----------11----11------6---(6)-6-6-6---6----6---------|---9--9-9-9-9-9-9-9-9-4-------|
D|------------x-----x------x-------x-x-x---x----x---------|---x--x-x-x-x-x-x-x-x-x-------|
A|------------9-----9--0---4---(4)-4-4-4---4----4---------|---7--7-7-7-7-7-7-7-7-2-0-0---|
E|-----------10----10--0---5---(5)-5-5-5---5----5----0--0-|---8--8-8-8-8-8-8-8-8-3-0-0---|


[Bridge]
   E                                      D           A         C               G
   Gtr VI
                               ~~~~~~~~~~~~~~~~~~~~~~~~~~~~~~~~~~~~~~~~~~~~~~~~~~~~~~~~~~~~~
    Q        +E       +E      +Q           +Q          W
e|--------------------------------------------------|--------------------------------------|
B|--------------------------------------------------|-17-----------------------------------|
G|-14-------(14)b16==(14)----(14)---------(14)------|-14r----------------------------------|
D|--------------------------------------------------|--------------------------------------|
A|--------------------------------------------------|--------------------------------------|
E|--------------------------------------------------|--------------------------------------|
 |
 | Gtrs III, IV
 |  E  S  S   E        S   S  +S   S  S S   E   S S    Q    E S  S  +S   S  S S  S  S  S S
e|------------------------------------------2-------|--------------------------------------|
B|------------------------------------------3---3---|--2---------1--(1)--------------------|
G|--1---------1------------1--(1)-----------2---2---|--2----2----0--(0)--0--0----0--0------|
D|--2--2--2---2--------2---2--(2)--2--2-----0---0-0-|--2----2----2--(2)--2--2----0--0--0---|
A|--2--2--2---2--------2---2--(2)--2--2-0-------0-0-|--0----0-0--3--(3)--3--3-0--2--2--2---|
E|--0--0--0---0--------0---0--(0)--0--0-0-----------|---------0---------------0--3--3--3-0-|
 |
 | Gtr II
 |  E  S  S   E        S   S  +S   S  S S   E   S S    Q    E S  S  +S   S  S S  S  S  S S
e|--------------------------------------------------|--------------------------------------|
B|--------------------------------------------------|--------------------------------------|
G|--------------------------------------------------|--------------------------------------|
D|-----------------------------------------12-------|-11---11---10-(10)-10-10---12-12-12---|
A|-11-11-11--11-------11--11-(11)-11-11----12--12---|--0----0-0-10-(10)-10-10---10-10-10-0-|
E|--0--0--0---0--------0---0--(0)--0--0-0--10--10-0-|---------0--8--(8)--8--8-0-10-10-10-0-|


     E                                     D         A           C               G
  ~~~~~~~~~~~~~~~~~~~~~~~~~~~~~~~~~~~~~~~~~~~~~~~~~~~~~~~~~
      +W                                              +W                                        3x
e||------------------------------------------------|--------------------------------------------||
B||o-(17)------------------------------------------|-(17)--------------------------------------o||
G||--(14)pb16======================================|=(14)r--------------------------------------||
D||------------------------------------------------|--------------------------------------------||
A||o-----------------------------------------------|-------------------------------------------o||
E||------------------------------------------------|--------------------------------------------||
 |
 |     E        S  S  E  S  S  +S   S  S S  E  S S     Q     E S  S  +S   S  S S  S  S  S S     3x
e||-----------------------------------------2------|--------------------------------------------||
B||o----------------------------------------3--3---|---2----------1--(1)-----------------------o||
G||----1--------------1-----1--(1)----------2--2---|---2-----2----0--(0)--0--0----0--0----------||
D||----2--------2--2--2--2--2--(2)--2--2----0--0-0-|---2-----2----2--(2)--2--2----0--0--0-------||
A||o---2--------2--2--2--2--2--(2)--2--2-0-----0-0-|---0-----0-0--3--(3)--3--3-0--2--2--2------o||
E||----0--------0--0--0--0--0--(0)--0--0-0---------|-----------0---------------0--3--3--3-0-----||
 |
 |     E        S  S  E  S  S  +S   S  S S  E  S S     Q     E S  S  +S   S  S S  S  S  S S     3x
e||------------------------------------------------|--------------------------------------------||
B||o-----------------------------------------------|-------------------------------------------o||
G||------------------------------------------------|--------------------------------------------||
D||----------------------------------------12------|--11----11---10-(10)-10-10---12-12-12-------||
A||o--11-------11-11-11-11-11-(11)-11-11---12-12---|---0-----0-0-10-(10)-10-10---10-10-10-0----o||
E||----0--------0--0--0--0--0--(0)--0--0-0-10-10-0-|-----------0--8--(8)--8--8-0-10-10-10-0-----||


[Outro]
   (E)
   Gtr II
                         ~~~~
    S S S S  S  S S  S  +S  S S S  S      S S   S
e|-------------------------------------------------|
B|-------------------------------------------------|
G|-11s9-----13s14---13-(13)-------11s=====9--------|
D|--x--------x-------x-------------x---------------|
A|--9s7-----11s12---11-(11)--------9s=====7--------|
E|------0-0-------0---------0-0-0-----------0---0--|
 |
 | Gtr III
 |  S S S S  S  S S  S  +S  S S S  S      S S   S
e|-------------------------------------------------|
B|-------------------------------------------------|
G|-11s9-----13s14---13-(13)-------11s=====9--------|
D|--x--------x-------x-------------x---------------|
A|--9s7-----11s12---11-(11)--------9s=====7--------|
E|------0-0-------0---------0-0-0-----------0---0--|
 |
 | Gtr VI
 |  H.                             E.          +S
e|-------------------------------------------------|
B|-------------------------------------------------|
G|--------------------------------11b12.5-----(11)s|
D|-------------------------------------------------|
A|-------------------------------------------------|
E|-------------------------------------------------|


                         ~~~~
    S S S S  S  S S  S  +S  S S S  Q
e|-----------------------------------------|
B|-----------------------------------------|
G|-11s9-----13s14---13-(13)-------11-------|
D|--x--------x-------x-------------x-------|
A|--9s7-----11s12---11-(11)--------9-------|
E|------0-0-------0---------0-0-0----------|
 |
 |  S S S S  S  S S  S  +S  S S S  Q
e|-----------------------------------------|
B|-----------------------------------------|
G|-11s9-----13s14---13-(13)-------11-------|
D|--x--------x-------x-------------x-------|
A|--9s7-----11s12---11-(11)--------9-------|
E|------0-0-------0---------0-0-0----------|
 |
 |  e   E    H                     E. +S
e|-----------------------------------------|
B|-----------------------------------------|
G|-16--------------------------------------|
D|-----------------------------------------|
A|---------------------------------9--(9)s=|
E|-----------------------------------------|


   (E)
                       ~~~~
    E S S  S  S S  S  +S  S S S  Q
e|---------------------------------------|
B|---------------------------------------|
G|-13-----13s14---13-(13)-------11-------|
D|--x------x-------x-------------x-------|
A|-11-----11s12---11-(11)--------9-------|
E|--0-0-0-------0---------0-0-0----------|
 |
 |  E S S  S  S S  S  +S  S S S  Q
e|---------------------------------------|
B|---------------------------------------|
G|--------13s14---13-(13)-------11-------|
D|---------x-------x-------------x-------|
A|-11-----11s12---11-(11)--------9-------|
E|--0-0-0-------0---------0-0-0----------|
 |
 |  e E    H                     E.  +S
e|---------------------------------------|
B|---------------------------------------|
G|------------------------------11--(11)s|
D|-------------------------------x-------|
A|-11----------------------------9---(9)s|
E|---------------------------------------|


                       ~~~~
    E S S  S  S S  S  +S  S S S  Q
e|------------------------------------------|
B|------------------------------------------|
G|-13-----13s14---13-(13)-------11----------|
D|--x------x-------x-------------x----------|
A|-11-----11s12---11-(11)--------9----------|
E|--0-0-0-------0---------0-0-0-------------|
 |
 |  E S S  S  S S  S  +S  S S S  Q
e|------------------------------------------|
B|------------------------------------------|
G|--------13s14---13-(13)-------11----------|
D|---------x-------x-------------x----------|
A|-11-----11s12---11-(11)--------9----------|
E|--0-0-0-------0---------0-0-0-------------|
 |
 |  e E    H                     E.  +S   a
e|------------------------------------------|
B|------------------------------------------|
G|-13---------------------------11--(11)s13-|
D|-------------------------------x----------|
A|-11----------------------------9---(9)s11-|
E|------------------------------------------|


   (E)
                       ~~~~                               ~~~~
    E S S  S  S S  S  +S  S S S  Q     E S S  S  S S  S  +S  S S S  Q
e|----------------------------------|----------------------------------|
B|----------------------------------|----------------------------------|
G|-13-----13s14---13-(13)-------11--|--9-----13s14---13-(13)-------11--|
D|--x-------------------------------|--x-------------------------------|
A|-11-----11s12---11-(11)--------9--|--7-----11s12---11-(11)--------9--|
E|--0-0-0-------0---------0-0-0-----|--0-0-0-------0---------0-0-0-----|
 |
 |  E S S  S  S S  S  +S  S S S  Q     E S S  S  S S  S  +S  S S S  Q
e|----------------------------------|----------------------------------|
B|----------------------------------|----------------------------------|
G|--------13s14---13-(13)-------11--|--------13s14---13-(13)-------11--|
D|----------------------------------|----------------------------------|
A|-11-----11s12---11-(11)--------9--|--7-----11s12---11-(11)--------9--|
E|--0-0-0-------0---------0-0-0-----|--0-0-0-------0---------0-0-0-----|
 |
 |  TP                                 TP
 |  W                                  W
e|----------------------------------|----------------------------------|
B|----------------------------------|----------------------------------|
G|-13-------------------------------|-14-------------------------------|
D|----------------------------------|----------------------------------|
A|-11-------------------------------|-12-------------------------------|
E|----------------------------------|----------------------------------|


   (E)
                       ~~~~
    E S S  S  S S  S  +S  S S S  Q
e|----------------------------------|
B|----------------------------------|
G|--9-----13s14---13-(13)-------11--|
D|--x------x-------x-------------x--|
A|--7-----11s12---11-(11)--------9--|
E|--0-0-0-------0---------0-0-0-----|
 |
 |  E S S  S  S S  S  +S  S S S  Q
e|----------------------------------|
B|----------------------------------|
G|--------13s14---13-(13)-------11--|
D|---------x-------x-------------x--|
A|--7-----11s12---11-(11)--------9--|
E|--0-0-0-------0---------0-0-0-----|
 |
 |  TP
 |  W
e|----------------------------------|
B|----------------------------------|
G|-16-------------------------------|
D|----------------------------------|
A|-14-------------------------------|
E|----------------------------------|


                                  Ritard Q=70
                                  D5/A  E5
                       ~~~~
    E S S  S  S S  S  +S  S S S   Q     H    H
e|-----------------------------------||-----------*|
B|--------------------------------3--||-0----0----*|
G|--9-----13s14---13-(13)---------2--||-x----x----*|
D|--x------x-------x--------------0--||-2----2----*|
A|--7-----11s12---11-(11)---------0--||-2----2----*|
E|--0-0-0-------0---------0-0-0------||-0----0----*|
 |
 |  E S S  S  S S  S  +S  S S S   Q     H    H
e|-----------------------------------||-----------*|
B|--------------------------------3--||-----------*|
G|--------13s14---13-(13)---------2--||-----------*|
D|---------x-------x--------------0--||-2----2----*|
A|--7-----11s12---11-(11)---------0--||-2----2----*|
E|--0-0-0-------0---------0-0-0------||-0----0----*|
 |
 |                                Gtrs III, IV
 |  TP                 TP
 |  H                 +E.     T T Q     H    H
e|-----------------------------------||-----------*|
B|--------------------------------3--||-0----0----*|
G|-19----------------(19)---------2--||-x----x----*|
D|--------------------------------0--||-2----2----*|
A|-17----------------(17)-----0-0-0--||-2----2----*|
E|----------------------------0-0----||-0----0----*|


Duration Legend
---------------
W - whole; H - half; Q - quarter; E - 8th; S - 16th; T - 32nd; X - 64th; a - acciaccatura
+ - note tied to previous; . - note dotted; .. - note double dotted
Uncapitalized letters represent notes that are staccato (1/2 duration)
Irregular groupings are notated above the duration line
Duration letters will always appear directly above the note/fret number it represents the
duration for.  Duration letters with no fret number below them represent rests.  Multi-
bar rests are notated in the form Wxn, where n is the number of bars to rest for.  Low
melody durations appear below the staff

Tablature Legend
----------------
 h   - hammer-on
 p   - pull-off
 b   - bend
 pb  - pre-bend
 r   - bend release (if no number after the r, then release immediately)
 /\  - slide into or out of (from/to "nowhere")
 s   - legato slide
 S   - shift slide
  - natural harmonic
[n]  - artificial harmonic
n(n) - tapped harmonic
 ~   - vibrato
 tr  - trill
 T   - tap
 TP  - trem. picking
 PM  - palm muting
\n/  - tremolo bar dip; n = amount to dip
 \n  - tremolo bar down
 n/  - tremolo bar up
/n\  - tremolo bar inverted dip
 =   - hold bend; also acts as connecting device for hammers/pulls
 <>  - volume swell (louder/softer)
 x   - on rhythm slash represents muted slash
 o   - on rhythm slash represents single note slash

Misc Legend
-----------
 |  - bar
||  - double bar
||o - repeat start
o|| - repeat end
*|  - double bar (ending)
 :  - bar (freetime)
 $  - Segno
 &  - Coda
Tempo markers -  = BPM(8/16=s8/s16), where s8 = swing 8ths, s16 = swing 16ths
Suggest correction
comments
print report bad tab
22 comments total. Showing first comments.
0 reply
afrothunder666 50 Jul 15, 2005 08:00 PM

How long did it take to type this thing? It's a little too short you know!

0 reply
SLD.Potato 131 Apr 15, 2007 08:23 AM

Hmm... can somebody say "overkill"?!

+1 reply
E_squared 20 Oct 12, 2007 06:44 PM

AAAAUUUUHHHHHH!!!! TOO MUCH TAB!! I THINK MY HEAD IS GOING TO EXPLODE!!

Yeah... It's grotesquely long for a song that really isn't all that difficult, but as far as I can tell, it's very accurate... bit TOO accurate, really...

guest
You may want to rate the tab now too:
select rating
Wanna post a correction for this tab? Suggest correction