Oops, an error
Loading. Please wait.

Come On Lets Go Tab

version 1
version 1

Intro

Whole song

1,275 views 3 this week
3 commentsread comments
1 2 3 4 5
excellent!
x 1
add to favorites
launch autoscroll
font size
0
reset
how to read this tab
guitar tuner
Tab Pro tools
  • play this tab
  • loop segment
  • change instrument
  • show fretboard
  • metronome
Autoscroll
slow
fast
+/-
esc
set tempo
stop
Contributor
Yet another amazing song from Zeitgeist. Corgan hasn't lost his touch, atleast in my books.

TUNING: Half step down

Start with a pickslide and then...

d#-|-------10-13-10-----------------------------------------------------|
A#-|-10-13----------13-10----10--11-10-------10-11-10-------10-10-------|
F#-|----------------------12-----------12-10----------12-10-------12-10-|
C#-|--------------------------------------------------------------------|
G#-|--------------------------------------------------------------------|
D#-|--------------------------------------------------------------------|

d#-|------------|
A#-|-13b-11-10b-|
F#-|------------|
C#-|------------|
G#-|------------|
D#-|------------|

Sorry, I couldn't fit it all in one bar. :P Enjoy.

comments
We did not receive enough feedback on this tab! Please rate:
print report bad tab
1 2 3 4 5
3 comments total.
0 reply
sir-psycho-sexy wrote on August 8 2007, 03:37 pm

Something like this for the riff?

eb|-----------------|
Bb|-----------------|
Gb|-----------------|
Db|-----------------|
Ab|-----8-----------|
Db|-0-0---8-8-8-8-7-|

0 reply
TechnicolorBoy wrote on August 8 2007, 03:42 pm

Actually, it's more like

|---------------------------------|
|---------------------------------|
|---------------------------------|
|-----5---------------------------|
|-------3-3-3-3-5---------3-3-3-2-|
|-0-0-------------3-3-3-1---------|

Or atleast something similar to that.

0 reply
TechnicolorBoy wrote on August 8 2007, 09:24 pm

Woops. The riff I just posted is if you're tuned 1 1/2 steps down. Sorry. :P If you're gonna tune a full step lower than 1/2 step down (which would be 1 1/2 steps), just move the intro riff up 2 frets.

I want to post or [tab]
guest
You may want to rate the tab now too:
select rating
Please do not post tabs as comments. Select "correction" instead!