Oops, an error
Loading. Please wait.

Disarm Tab

version 2
version 2

Whole song

Interactive

37,395 views 24 this week
6 commentsread comments
1 2 3 4 5
accurate
x 14
add to favorites
launch autoscroll
font size
0
reset
how to read this tab
guitar tuner
Tab Pro tools
  • play this tab
  • loop segment
  • change instrument
  • show fretboard
  • metronome
×
Best way to learn
"Disarm"
Autoscroll
slow
fast
+/-
esc
set tempo
stop
Contributor
Tuning: EADGBe


VERSE
                    x5
|-0----0----3------0--|
|-3----3----3------3--|
|-0----0----0------2--|
|-2----2----0------0--|
|-2----3----2------X--|
|-0---------3------2--|

|-0----0----3----2----0--------|
|-3----3----3----3----1--------|
|-0----0----0----2----0--------|
|-2----2----0----0----2--------|
|-2----3----2---------3--------|
|-0---------3------------------|


CHORUS
                            x3
|-0--------0----2----0--------|
|-1--------0----3----1--------|
|-0--------0----2----0--------|
|-2--------2----0----2--------|
|-3--------2---------3--------|
|----------0------------------|


BRIDGE
|-0----2----0----2----0----------------|
|-0----3----0----3----1----------------|
|-0----2----0----2----0----------------|
|-2----0----2----0----2----------------|
|-2---------2---------3----------------|
|-0---------0--------------------------|


VERSE 2
                    x3
|-0----0----3------0--|
|-3----3----3------3--|
|-0----0----0------2--|
|-2----2----0------0--|
|-2----3----2------X--|
|-0---------3------2--|

|-0----0----3----2----0--------|
|-3----3----3----3----1--------|
|-0----0----0----2----0--------|
|-2----2----0----0----2--------|
|-2----3----2---------3--------|
|-0---------3------------------|


CHORUS 2
                   x3
|-0--------0----2----|
|-1--------0----3----|
|-0--------0----2----|
|-2--------2----0----|
|-3--------2---------|
|----------0---------|

|-0--------|
|-1--------|
|-0--------|
|-2--------|
|-3--------|
|----------|


BRIDGE
                   x3
|-2----0----0--------|
|-3----0----1--------|
|-2----0----0--------|
|-0----2----2--------|
|------2----3--------|
|------0-------------|


OUTRO

|-2----0----2----0----2----0----|
|-3----0----3----0----3----0----|
|-2----0----2----0----2----0----|
|-0----2----0----2----0----2----|
|------2---------2---------2----|
|------0---------0---------0----|

End on
|-0----|
|-1----|
|-0----|
|-2----|
|-3----|
|------|
comments
print report bad tab
6 comments total. Showing first comments.
0 reply
nightblade57 wrote on February 1 2005, 12:00 am

Nice job on this tab, ryan. Seems like every song is tabbed in chords, but I don't always recognize them, so this helped out. Since there are always variations of chords, it doesn't hurt to be sure. I've figured out quite a few songs by watching videos. I figure that's the most accurate way.

-2 reply
rnrigfts wrote on January 23 2006, 09:51 pm

no

-2 reply
Kelly_is_pro wrote on October 12 2006, 03:52 pm

Dude, thats not how it goes at all. You are WAY off.

I want to post or [tab]
guest
You may want to rate the tab now too:
select rating
Please do not post tabs as comments. Select "correction" instead!