Oops, an error
Loading. Please wait.

Drown tab

version 3
version 3

Whole song

  • More complete and accurate version tabbed from mul... Show more

Interactive

2,386 views 12 this week
1 commentread comment
1 2 3 4 5
x 5
add to favorites
×
Save as Personal and add changes to this tab that will be seen only by you. Learn more ›
×
You can save this tab as Personal to edit and correct it or add notes. All changes will be seen only by you. Learn more »
launch autoscroll
font size
0
reset
how to read this tab
guitar tuner
edit
Autoscroll
slow
fast
+/-
esc
set tempo
stop
Author
About this tab version
More complete and accurate version tabbed from multiple live videos. Leads are from the studio version. Was this info helpful? Yes No
Tuning: D A D G B E


INTRO

 1.2.4.
e|----------------------------------------|
B|----------------------------------------|
G|----------9-----------------------------|
D|-11-11-11-0-11-9------------------------|
A|-0--0--0----0--0-12--12-12-12-9-12-9-12-|
D|-----------------0---0--0--0--0-0--0-0--|

 3.
e|---------------------------------|
B|---------------------------------|
G|----------9----------------------|
D|-11-11-11-0-11-9-----------------|
A|-0--0--0----0--0-12--9--9--9-9-9-|
D|-----------------0---0--0--0-0-0-|


VERSE
e|----------------------------------------|
B|----------------------------------------|
G|----------9-----------------------------|
D|-11-11-11-0-11-9------------------------|
A|-0--0--0----0--0-12--12-12-12-9-12-9-12-|
D|-----------------0---0--0--0--0-0--0-0--|


CHORUS
e|---------------------------------------------------
B|---------------------------------------------------
G|-12-12-12-12-12\7-7-7----2--2--2-4----2--2--2-4----
D|-12-12-12-12-12\7-7-7----2--2--2-2----2--2--2-2----
A|-10-10-10-10-10\5-5-5----0--0--0-0----0--0--0-0----
D|-10-10-10-10-10\5-5-5------------------------------

 -0-------------------------------------|
 -3-------------------------------------|
 -2--2---2/4---4/7---7/9-9/11-----------|
 -0------------------------------9~~----|
 -0------------------------------7~~----|
 -0----0-----0-----0--------------------|

MINI SOLO - Rhythm plays verse

 Lead 1
e|----------------------------------------------------|
B|----------------------------------------------------|
G|-6~~~~----------------4~~~~----4-6~~~~--------------|
D|----------------------------------------------------|
A|----------------------------------------------------|
D|----------------------------------------------------|
 Lead 2
e|----------------------------------------------------|
B|----------------------------------------------------|
G|----------11r9~~~~-----------------9~~b11~~~~r9~~~~-|
D|----------------------7~~~~-------------------------|
A|----------------------------------------------------|
D|----------------------------------------------------|


VERSE 2
e|----------------------------------------|
B|----------------------------------------|
G|----------9-----------------------------|
D|-11-11-11-0-11-9------------------------|
A|-0--0--0----0--0-12--12-12-12-9-12-9-12-|
D|-----------------0---0--0--0--0-0--0-0--|


CHORUS 2
e|---------------------------------------------------
B|---------------------------------------------------
G|-12-12-12-12-12\7-7-7----2--2--2-4----2--2--2-4----
D|-12-12-12-12-12\7-7-7----2--2--2-2----2--2--2-2----
A|-10-10-10-10-10\5-5-5----0--0--0-0----0--0--0-0----
D|-10-10-10-10-10\5-5-5------------------------------

 -0-------------------------------------|
 -3-------------------------------------|
 -2--2---2/4---4/7---7/9-9/11-----------|
 -0------------------------------9~~----|
 -0------------------------------7~~----|
 -0----0-----0-----0--------------------|


BRIDGE
e|-----------------|
B|-----------------|
G|-2-2-2-2---------|
D|-2-2-2-2-0-0-0-0-|
A|-0-0-0-0-0-0-0-0-|
D|---------0-0-0-0-|


SOLO

 Rhythm
e|---------------------------------|
B|---------------------------------|
G|-2-2-2-2-5-5-5-5-----------------|
D|-2-2-2-2-5-5-5-5-5-5-5-5-5-5-5-5-|    last time played end on D
A|-0-0-0-0-3-3-3-3-5-5-5-5-5-5-5-5-|
D|-----------------5-5-5-5-5-5-5-5-|

 Lead
e|----------------------------------------------------
B|----------------------------------------------------
G|-16b18r16-14-17--17-17-16--14h16p14\12-14b16r14p12--
D|----------------------------------------------------
A|----------------------------------------------------
D|----------------------------------------------------

 ----------------------------------------------------
 -----------------15---------------------------------
 -16b18r16-14-17-----17b19---------------------------
 --------------------------------11-12-14-12-11--10--
 -----------------------------12--------------------- 
 ---------------------------------------------------- 

 --------------------------------------------------------------
 --------------------------------------------------------------
 -17-17-17\16-16-16\14-14-14/16-12-12--------------------------
 -------------------------------------------11-12-14-12-11--10-
 -15-15-15\14-14-14\12-12-12/14-10-10----12--------------------
 --------------------------------------------------------------

 -----------------------|
 -----------------------|
 -17-17-17-16-----------|
 ----------------14gb16-|
 -----------------------|
 -----------------------|


INTERLUDE

 1.2.3.4.7.8.11.   5.6.9.10.
e|---------0-------|-------------------|
B|-----3-----3---3-|-----3---3-----3p2-|
G|---2---2-----2---|---2---2---2-------|
D|-0---------------|-0-----------0-----|
A|-----------------|-------------------|
D|-----------------|-------------------|

Then hit this chord distorted
e|------|
B|-3----|
G|-2----|
D|-0----|
A|-0----|
D|-0----|


OUTRO
e|---------------------------------|
B|---------------------------------|
G|-2-2-2-2-5-5-5-5-----------------|
D|-2-2-2-2-5-5-5-5-5-5-5-5-5-5-5-5-|
A|-0-0-0-0-3-3-3-3-5-5-5-5-5-5-5-5-|
D|-----------------5-5-5-5-5-5-5-5-|


Then end with on D with feedback
e|------|
B|------|
G|------|
D|-0----|
A|-0----|
D|-0----|

            
            
Suggest correction
Creating personal tab
Creating personal tab
You can edit any tab online and save it as your Personal.

You can edit, replace or remove any tab part or add personal notes – all changes will be seen only by you.

Personal tabs can be accessed anytime from any device, even offline.
Learn more »
comments
print report bad tab
1 comment total.
0 reply
th3no0b 10 Aug 30, 2017 03:46 PM

Solo's+chords are good, riff at start is easier to play like in version 1 on here

guest
You may want to rate the tab now too:
select rating
Wanna post a correction for this tab? Suggest correction